PrimaNota.ru - самый крупный в мире бесплатный архив песенных текстов, аккордов, табулатур и нот


Manchester Orchestra - Leaky Breaks - аккорды и текст, видео

Регистрация Запомнить меня
Войти через:  Facebook Google Twitter Vk Yandex Mail.ru

Manchester Orchestra - Leaky Breaks - аккорды и текст, видео

Печатать
Просмотров: 104
Leaky Breaks
Manchester Orchestra
Tuning: Half-step down

***lead guitar parts at the bottom***

intro and main riff used throughout the song
eb|----------------------------------------|
bb|----------------------------------------|
gb|----------------------------------------|
db|--6b-6-4------6b-6-4--------------------|x2
ab|0---------0-0-----------6-6-7-----6-6-7-|
eb|----------------------0-------0-0-------|
   A                     E

A                                                       E
Leaky holes and fire escapes will set the evening for tone
A                                                        E
You and your holy halo started burning eventually just froze
A                                                        E
Sewn into the carpet just trying to thaw out whatever I know
A                                                    E
The thermostat it won't go higher not that you or I know

A     C#m        E
  I was drinking heavily
A     C#m           E      F#m
  I burst into your bedroom belligerently
A                    E           A                      E          F#m
  Asked her if she's done a thing like stepping out and making a scene
    A                E           A                        E            A
  So foolishly I was apathetic so I blamed your family and Never mended it

 A                                                             E
  Shitty brakes and balding tires we're out around on the road
  A                                                    E
  You and my little sister, flashy frequent scariest snow
     A
  And we return just fine
                                      E
  I started to crack your analytical code
          A                          E
  By the time you're convinced, I know

A E x3
A                    E
  When I was drinking heavily
A                   E         F#m
  I burst into your bedroom confusingly
A                  E
  Yelled about a bunch of things
A                          E            F#m           A
  that if you looked you'd never see for our eternities
 E                               A
  And I blamed you for not being
E                  A G#m F#m E                    A
  someone you could not be someone you'll never be

( A A C#m C#m )x4                       E
  Now I see everything and everyone you see
  A                                                  E
  Killing time alone inside a stripped and nakedest home
  A                                                           E
  Couldn't catch my brain up with the sights and fear that I saw
  A                                                E
  Fell into the doorway hoping you had left the guitars
  A                                                 E
  It's way too late for calling anyways I guess I'll doze off  x5

A                    E
  I've been drinking carefully
A                  E           F#m
  I creep into our bedroom and watch you sleep
A                E
  My mind it wanders onto things
A                      E        F#m                      A
  that if I try I can't explain as if there's something worse
E                        A     E                         A      E
  As if there's something worse, to have weaned away your worth, when I was
     A       E                             A
  so absurd      Well is there something worse?

A E rest of song till the end


lead guitar intro
eb|---------------------------------------------------11-----------------------------|
bb|14---12-14--12-9---9-9-14-12-9-9---14--14br--14-14----14-12-9--9-9-14-12-9-9-14-12|
gb|----------------------------------------------------------------------------------|
db|----------------------------------------------------------------------------------|
ab|----------------------------------------------------------------------------------|
eb|----------------------------------------------------------------------------------|

0:28 verse 1 lead part
eb|----------------------|
bb|--------------4-------|
gb|-4/6--------6---6-4---| does this several more times
db|--------------------6-|
ab|----------------------|
eb|----------------------|

0:58
eb|---------------------------|
bb|12-14--9----12-14--9--7--5-|
gb|x--x---x----x--x---x--x--x-|
db|9--11--6----9--11--6--4--2-|
ab|---------------------------|
eb|---------------------------|

1:33
eb|--------------------------------7-9-7----------------|
bb|--------------------------------------9-7------------|
gb|------------------------------------------9----------|
Db|6-6-6-6b-6b-6b-6b-6b-6b-6br-6-----------------6-4-2--|
ab|-----------------------------------------------------|
eb|-----------------------------------------------------|

1:47  1:52  1:57
eb|--------|
bb|7--9--5-|
gb|x--x--x-|
db|4--6--2-|
ab|--------|
eb|--------|

2:12
eb|-------------------------------------------9-9-999-7---9-9-999-7---------|
bb|5-7-9-9---5-7-9-9--9br--9b-9b-9b-9b-9b-9b------------9-----------9-9-9br-|
gb|-------------------------------------------------------------------------|
db|-------------------------------------------------------------------------|
ab|-------------------------------------------------------------------------|
eb|-------------------------------------------------------------------------|
                         something like this
eb|-------------------------------------------------------------------------|
bb|-999-7-------------------------------------------------------------------|
gb|-------9-9br-8-8-8b-6-6-6b-4-4-4b-2-2-2b --------------------------------|
db|-----------------------------------------6-6-6b-4-4-4b-2-2-2b------2~----|
ab|--------------------------------------------------------------4-4b-2~----|
eb|-------------------------------------------------------------------0~----|

2:42                                      3:06
eb|-----------------------------------------------------------|
bb|-----------------------------------------------------------|
gb|14-13---14-13-11--14-13---14-13-11-9----9---14-13-11-9--14-|
db|x--x----x--x--x---x--x----x--x--x--x----x---x--x--x--x--x--|
ab|12-11---12-11-9---12-11---12-11-9--7----7---12-11-9--7--12-|
eb|-----------------------------------------------------------|

3:20
eb|-----------------------------------------------------------------|
bb|9-9---11-11--9-9---11-11--9-9---11-11--9b~-----------------------|
gb|x-x---x--x---x-x---x--x---x-x---x--x---x----14-14-14-13-13-11-9--|
db|6-6---9--9---6-6---9--9---6-6---9--9---6b~--x--x--x--x--x--x--x--|
ab|--------------------------------------------12-12-12-11-11-9--7--|
eb|-----------------------------------------------------------------|

3:36  this part keeps repeating for a long time in the background
eb|------------------|     during "way to late for calling..." part
bb|------------------|
Gb|-13-13-13-13-11-9-|
db|-x--x--x--x--x--x-|
ab|-11-11-11-11-9--7-|
eb|------------------|

5:03
eb|----------------------------------------------------------------|
bb|----------------------------------------------------------------|
gb|----------------------------------------------------------------|
db|11-/14-9--/14-11--14-9--13-14--11--11-9--9-11-119--13-14--------|
ab|x--/x--x--/x--x---x--x---x-x---x---x--x--x-x--x-x--x--x---------|
eb|9--/12-7--/12-9---12-7--11-12--9---9--7--7-9--9-7--11-12--9...etc
Добавлено: 10.11.2013
Другие материалы по этой песне:
  • Аккорды и текст

Страница создана 10.11.2013
http://primanota.ru/manchester-orchestra/leaky-breaks-chords.htm
Привет, Гость.
Предлагаем пройти революционный курс по гитаре.
Подарок от PrimaNota.Ru, забирай!