PrimaNota.ru - самый крупный в мире бесплатный архив песенных текстов, аккордов, табулатур и нот


Manchester Orchestra - Girl Harbor - Hope - таба, видео

Регистрация Запомнить меня
Войти через:  Facebook Google Twitter Vk Yandex Mail.ru

Manchester Orchestra - Girl Harbor - Hope - таба, видео

Печатать
Просмотров: 95
-------------------------------------------------------------------------------
                             SONG NAME - Band Name
-------------------------------------------------------------------------------
Tabbed by:
E-mail:

Tuning:Drop C#

The last hit on the low C# that I put in parenthesis is the same as the first hit for the next time when you
restart.

D#|---------------------------------------------------------------------------|
A#|---------------------------------------------------------------------------|
F#|---------------------------------------------------------------------------|  (x4)
C#|-----4-----2-----0-------------------0-----0-----0-----0-----0-------------|
G#|---0-----0-----0-----0-4---0-2p0---0-----0-----0-----0-----0---------------|
C#|-0-----0-----0-----0-----0-------5-----5-----5-----5-----5-----0-(0)-------|

Cause you always talk so loud,
And you never notice,
I don't mind the sound but you've,

The next parts timing is weird but you do play each position five times. Try to listen to the song to figure
it out.

D#|----------|----------|----------|----------|
A#|----------|----------|----------|----------|
F#|-----7----|-----9----|-----7----|-----2----|
C#|---0---x5-|---0---x5-|---0---x5-|---0---x5-|
G#|----------|----------|----------|----------|
C#|-9--------|-7--------|-5--------|-0--------|

Rearranged the pieces of your life,
So many times you burned out the parts.

The second time you play through the chorus part, you only play the first section then go 
straight into the verse progression.

D#|---------------------------------|----------|---|
A#|---------------------------------|----------|---|
F#|-----7-------7-------7-------7---|-----7----|---|
C#|---0---0---0---0---0---0---0---0-|---0---x5-|---|  x2
G#|---------------------------------|----------|---|
C#|-7-------5-------7-------5-------|-0--------|-0-|

I don't wanna believe,
But I wanna believe you,
I don't mean what I say,
But I say what I mean to

D#|---------------------------------------------------------------------------|
A#|---------------------------------------------------------------------------|
F#|---------------------------------------------------------------------------|  (x4)
C#|-----4-----2-----0-------------------0-----0-----0-----0-----0-------------|
G#|---0-----0-----0-----0-4---0-2p0---0-----0-----0-----0-----0---------------|
C#|-0-----0-----0-----0-----0-------5-----5-----5-----5-----5-----0-(0)-------|

So now your last name is mine,
And I feel no different,
I made a match that's trying to prove,

D#|----------|----------|----------|----------|
A#|----------|----------|----------|----------|
F#|-----7----|-----9----|-----7----|-----2----|
C#|---0---x5-|---0---x5-|---0---x5-|---0---x5-|
G#|----------|----------|----------|----------|
C#|-9--------|-7--------|-5--------|-0--------|

Trying to find a way I can explain,
There was nothing else to possibly say.

D#|---------------------------------|----------|---|
A#|---------------------------------|----------|---|
F#|-----7-------7-------7-------7---|-----7----|---|
C#|---0---0---0---0---0---0---0---0-|---0---x5-|---|  x2
G#|---------------------------------|----------|---|
C#|-7-------5-------7-------5-------|-0--------|-0-|

I don't wanna believe,
But I wanna believe you,
I don't mean what I say,
But I say what I mean to

D#|---------------------------------------------------------------------------|
A#|---------------------------------------------------------------------------|
F#|---------------------------------------------------------------------------|  (do it a bunch of times
C#|-----4-----2-----0-------------------0-----0-----0-----0-----0-------------|   until desperate friends
G#|---0-----0-----0-----0-4---0-2p0---0-----0-----0-----0-----0---------------|   part)
C#|-0-----0-----0-----0-----0-------5-----5-----5-----5-----5-----0-(0)-------|

You waste so much time,
You waste so much time,

I squished the last part to fit but there isnt a difference in out you play it.

D#|-----------------------------------|------------------|-----------------------------------------------|
A#|-----------------------------------|------------------|-----------------------------------------------|
F#|-------2-------2-------4-------4---|-------2-------2--|-------6-------6-------7-------7-------9-----9-|
C#|---0-------0-------0-------0-------|---0-------0------|---0-------0-------0-------0-------0-------0---| x2
G#|--------------------------------x2-|------------------|-----------------------------------------------|
C#|-0---0---0---0---5---5---5---5-----|-0---0---0---0----|-4---4---4---4---5---5---5---5---7---7---7--7--|

On desperate friends,
Trying to reconcile their names,
There is a name for men like you inside the dark,
And I know your faults,
I know the way you write them off,
I don't want anything to do with it no more.

D#|---------------------------------------------------------------------------|
A#|---------------------------------------------------------------------------|
F#|---------------------------------------------------------------------------|  
C#|-----4-----2-----0-------------------0-----0-----0-----0-----0-------------|
G#|---0-----0-----0-----0-4---0-2p0---0-----0-----0-----0-----0---------------|
C#|-0-----0-----0-----0-----0-------5-----5-----5-----5-----5-----0-(0)-------|

I bet most the time,
You're too insecure to admit it,
You're the last in line to move,

D#|----------|----------|----------|----------|
A#|----------|----------|----------|----------|
F#|-----7----|-----9----|-----7----|-----2----|
C#|---0---x5-|---0---x5-|---0---x5-|---0---x5-|
G#|----------|----------|----------|----------|
C#|-9--------|-7--------|-5--------|-0--------|

Now I'm running out of things that I can say,
Cause nothing that I say is really helping anyway.


D#|---------------------------------|----------|---|
A#|---------------------------------|----------|---|
F#|-----7-------7-------7-------7---|-----7----|---|
C#|---0---0---0---0---0---0---0---0-|---0---x5-|---|  x4
G#|---------------------------------|----------|---|
C#|-7-------5-------7-------5-------|-0--------|-0-|

I don't wanna believe,
But I wanna believe you,   x2
I don't mean what I say,
But I say what I mean to

next part just play until end of song

D#|---------------------------------------------------------------------------|
A#|---------------------------------------------------------------------------|
F#|---------------------------------------------------------------------------|  
C#|-----4-----2-----0-------------------0-----0-----0-----0-----0-------------|
G#|---0-----0-----0-----0-4---0-2p0---0-----0-----0-----0-----0---------------|
C#|-0-----0-----0-----0-----0-------5-----5-----5-----5-----5-----0-(0)-------|

You waste so much time,
You waste so much time,

Добавлено: 18.05.2016
Вам также может быть интересно:
Другие материалы по этой песне:
  • Аккорды и текст

Страница создана 18.05.2016
http://primanota.ru/manchester-orchestra/girl-harbor-hope-chords.htm
Привет, Гость.
Предлагаем пройти революционный курс по гитаре.
Подарок от PrimaNota.Ru, забирай!