PrimaNota.ru - самый крупный в мире бесплатный архив песенных текстов, аккордов, табулатур и нот


Manchester Orchestra - I Could Be With Anyone - таба, видео

Регистрация Запомнить меня
Войти через:  Facebook Google Twitter Vk Yandex Mail.ru

Manchester Orchestra - I Could Be With Anyone - таба, видео

Печатать
Просмотров: 69
-------------------------------------------------------------------------------
                I Could Be With Anyone - Manchester Orchestra
-------------------------------------------------------------------------------
Album: I Could Be The Only One EP
Tabbed by: Tessa Kelly
E-mail: tessa.k15@gmail.com

Details: This tab is just about complete besides a couple small parts. All I really need to add is the
instrumentals/interlude, and other than that, any part I haven't written out yet probably uses the same
shapes as what I've already got tabbed. Hopefully what I have so far is accurate, but if you find any
mistakes, feel free to leave a comment letting me know! Feedback really helps. Thanks!

Tuning: D A D F# B e. This is basically Open D, but since the bottom two strings aren't used in the song,
you don't have to tune the high e down to a D (it would be pointless and time consuming, anyway).

------
Verses
------

e |---------------------------------|
B |---------------------------------|
F#|-------0-------0-------0-------0-|
D |---0-------0-------0-------0-----|
A |-----0-------0-------0-------0---|
D |-0-------0-------0-------0-------|
1. I could be with anyone,
2. Oh, I could talk to anyone,
3. Oh, I could stick to anyone,
4. See, I'm in love with everyone,

e |---------------------------------|
B |---------------------------------|
F#|-------0-------0-------0-------0-|
D |---2-------2-------2-------2-----|
A |-0---0---0---0---0---0---0---0---|
D |---------------------------------|
1. Just while the honeymoon burns bright.
2. Care just enough about a wounded pride.
3. At least for a little while.
4. With every sweetheart on the scene.

e |---------------------------------|
B |---------------------------------|
F#|-------0-------0-------0-------0-|
D |---0-------0-------0-------0-----|
A |-2---2---2---2---2---2---2---2---|
D |---------------------------------|
1. No electricity to keep things light.
2. A ballerina dreams a lead foot life.
3. A caffeinated string of cartoon smiles,
4. Each set is cheap and it'll flare past me.

e |---------------------------------|
B |---------------------------------|
F#|-------5-------5-------5-------5-|
D |---5-------5-------5-------5-----|
A |---------------------------------|
D |-5---5---5---5---5---5---5---5---|
1. And I'm not saying that it's right,
2. A sugar daddy and his clueless wife.
3. And conversations sharp and deep.
4. [see specific instructions for verse 4]

e |---------------------------------|
B |---------------------------------|
F#|-------4-------4-------4-------4-|
D |---4-------4-------4-------4-----|
A |---------------------------------|
D |-4---4---4---4---4---4---4---4---|
1. I'm not saying that it's always right,
2. And I know that it's not right,
3. A tempting sample of who I could be,
4. [see specific instructions for verse 4]]

e |---------------------------------|
B |---------------------------------|
F#|-------5-------5-------5-------5-|
D |---5-------5-------5-------5-----|
A |---------------------------------|
D |-5---5---5---5---5---5---5---5---|
1. I'm just saying that it's not a lie.
2. I just don't always know how or why.
3. Without the broken glass that's waiting underneath.
4. [see specific instructions for verse 4]

e |---------------------------------|
B |---------------------------------|
F#|-------7-------7-------7-------7-|
D |---7-------7-------7-------7-----|
A |---------------------------------|
D |-7---7---7---7---7---7---7---7---|

------
Bridge
------

e |---------------------------------|
B |---------------------------------|
F#|-------4-------4-------4-------4-|
D |---4-------4-------4-------4-----|
A |---------------------------------|
D |-4---4---4---4---4---4---4---4---|
1. So I'd walk soft

e |---------------------------------|
B |---------------------------------|
F#|-------5-------5-------5-------5-|
D |---5-------5-------5-------5-----|
A |---------------------------------|
D |-5---5---5---5---5---5---5---5---|
1. If I were you;

e |---------------------------------|
B |---------------------------------|
F#|-------0-------0-------0-------0-|
D |---0-------0-------0-------0-----|
A |-----0-------0-------0-------0---|
D |-0-------0-------0-------0-------|
1. You could cut up your feet.

e |---------------------------------|
B |---------------------------------|
F#|-------0-------0-------0-------0-|
D |---2-------2-------2-------2-----|
A |-0---0---0---0---0---0---0---0---|
D |---------------------------------|
1. For now, it's just what I am,

e |---------------------------------|
B |---------------------------------|
F#|-------5-------5-------5-------5-|
D |---5-------5-------5-------5-----|
A |---------------------------------|
D |-5---5---5---5---5---5---5---5---|
1. And it's not what I'll be,

e |---------------------------------|
B |---------------------------------|
F#|-------7-------7-------7-------7-|
D |---7-------7-------7-------7-----|
A |---------------------------------|
D |-7---7---7---7---7---7---7---7---|
1. Oh, hopefully.

-------
Verse 4
-------

This verse is played the same as the rest of the verses, except for the end, which goes as follows:

e |---------------------------------|
B |---------------------------------|
F#|-------5-------5-------5-------5-|
D |---5-------5-------5-------5-----|
A |---------------------------------|
D |-5---5---5---5---5---5---5---5---|
4. And I'm not saying that it's right,

e |---------------------------------|
B |---------------------------------|
F#|-------7-------7-------7-------7-|
D |---7-------7-------7-------7-----|
A |---------------------------------|
D |-7---7---7---7---7---7---7---7---|
4. I'm just saying that it's where

e |---------------------------------|
B |---------------------------------|
F#|-------5-------5-------5-------5-|
D |---5-------5-------5-------5-----|
A |---------------------------------|
D |-5---5---5---5---5---5---5---5---|
4. I'm at

e |---------------------------------|
B |---------------------------------|
F#|-------0-------0-------0-------0-|
D |---0-------0-------0-------0-----|
A |-----0-------0-------0-------0---|
D |-0-------0-------0-------0-------|
4. Tonight.

Lyrics:

I could be with anyone,
Just while the honeymoon burns bright
No electricity to keep things light
And I'm not saying that it's right,
I'm not saying that it's always right,
I'm just saying that it's not a lie

Oh, I could talk to anyone
Care just enough about a wounded pride
A ballerina dreams a lead foot life
A sugar daddy and his clueless wife
And I know that it's not right,
I just don't always know how or why

Oh, I could stick to anyone,
At least for a little while.
A caffeinated string of cartoon smiles,
And conversations sharp and deep
A tempting sample of who I could be,
Without the broken glass that's waiting underneath

So I'd walk soft if I were you;
You could cut up your feet
For now, it's just what I am,
And it's not what I'll be, oh, hopefully

See, I'm in love with everyone,
With every sweetheart on the scene
Each set is cheap and it'll flare past me
And I'm not saying that it's right,
I'm just saying that it's where I'm at tonight

I'm not saying it's right,
And I'm not saying it's a lie,
I'm just saying that it's where I'm at tonight
Oh, well I could be with anyone
I could be with anyone
I could be with anyone

I could be with anyone
So while the honeymoon burns bright
No electricity that keeps things right
And I'm not saying that it's right,
I'm just saying that it's not a lie
Добавлено: 18.05.2016
Другие материалы по этой песне:
  • Аккорды и текст

Страница создана 18.05.2016
http://primanota.ru/manchester-orchestra/i-could-be-with-anyone-chords.htm
Привет, Гость.
Предлагаем пройти революционный курс по гитаре.
Подарок от PrimaNota.Ru, забирай!