PrimaNota.ru - самый крупный в мире бесплатный архив песенных текстов, аккордов, табулатур и нот


Maggie Reilly - Cold The Stone Clad Mountains - аккорды и текст, видео

Регистрация Запомнить меня
Войти через:  Facebook Google Twitter Vk Yandex Mail.ru

Maggie Reilly - Cold The Stone Clad Mountains - аккорды и текст, видео

Печатать
Просмотров: 186
Cold The Stone Clad Mountains
Maggie Reilly
-----------------------------------------------------------------------------
                                          Artist - Maggie Reilly
                                         ************************
                                   Song - Cold The Stone Clad Mountain 
                                  *************************************
                                           Album - Heaven Sent
                                          *********************
                                          Tabbed By - Ayreon77
                                         **********************
-----------------------------------------------------------------------------
Tuning = Standard

---------------
CAPO 1st Fret
---------------

------------------------------
VERSE 1
********
  Am             F             G              Em
I walk along the shore looking out across the sea
    Dm          Em               Dm               Am
And think of my true lover who's gone to far from me
   Am              F               G                 Em
So many years have passed since we said our last goodbyes
    Dm               Em       Am
But still I can't forget. His smile


------------------------------
CHORUS
*******
Am                 F
Cold the snow clad mountain
G                Dm
Where the golden eagle flies
Am               F
On the west wind blowing
Dm             Am
Out across the endless skies
Am                 F
Cold the snow clad mountain
          G               Am
Where the moon hangs in a velvet sky
Am                F
Look and you will find me
Dm                     Am
Where the wind forever cries


------------------------------
VERSE 2
********
   Am             F           G             Em                 
My love he sailed away on the early morning tide
    Dm              Em
His fortune in some far-off land
   Dm                  Am
He hoped that he would find
   Am            F             G            Em
He promised to return, so I'll wait forever more
  Dm                 Em          Am
I know he'll come to find me someday


------------------------------
CHORUS
*******
Am                 F
Cold the snow clad mountain
G                Dm
Where the golden eagle flies
Am               F
On the west wind blowing
Dm             Am
Out across the endless skies
Am                 F
Cold the snow clad mountain
          G               Am
Where the moon hangs in a velvet sky
Am                F
Look and you will find me
Dm                     Am
Where the wind forever cries

------------------------------
SOLO 
02:26                                   h p
e|-UB-UB--UB--UB-|-UB-UB--UB--UB-|--h--5-8-5---5--s---|------------------------|------------------------|
B|--5--7---8--12-|--5--7---8--12-|-5-8-------8---8\10-|----p-------------------|------------s--8-s------|
G|--7--9--10--10-|--7--9--10--10-|--------------------|-9-9-8----8-------------|---------5-7\9--9/7-5-7-|
D|---------------|---------------|--------------------|-------10---10-7-10--10-|--s--5-7----------------|
A|---------------|---------------|--------------------|------------------------|-5\7--------------------|
E|---------------|---------------|--------------------|------------------------|------------------------|

 02:47                                                  b  b  r
e|--h-p----------------------------|----------------12-15-15---15-|--br-----p------------|
B|-5-6-5---5-----------------------|----------13-15---------------|-16-14-16-14----------|
G|-------7---7-5---5-7-5---5-------|---s---14---------------------|-------------15-13-15-|
D|---------------7-------7---7-5-7-|-10\14------------------------|----------------------|
A|---------------------------------|------------------------------|----------------------|
E|---------------------------------|------------------------------|----------------------|

                                b
e|-------------------rake------15-15-12--rb-------|--------brp------|
B|--------------------13----13----------15--13-15-|-15-13-15--13----|
G|-----------s---12--12--14-----------------------|--------------14-|
D|--s---10-12\14----------------------------------|-----------------|
A|-8\12-------------------------------------------|-----------------|
E|------------------------------------------------|-----------------|


------------------------------
CHORUS
*******
Am                 F
Cold the snow clad mountain       \
G                Dm                \
Where the golden eagle flies        \
Am               F                   \
On the west wind blowing              \
Dm             Am                      \
Out across the endless skies            \
Am                 F                     \
Cold the snow clad mountain              /X3
          G               Am            /
Where the moon hangs in a velvet sky   /
Am                F                   /
Look and you will find me            /
Dm                     Am           /
Where the wind forever cries       / 


There is more solos in the end parts of the choruses, but there kinda hard to hear, 
so just do similar to the solo to add lib.


ENJOY.............
Добавлено: 18.05.2015
Другие материалы по этой песне:
  • Аккорды и текст

Страница создана 18.05.2015
http://primanota.ru/maggie-reilly/cold-stone-clad-mountains-chords.htm
Привет, Гость.
Предлагаем пройти революционный курс по гитаре.
Подарок от PrimaNota.Ru, забирай!