PrimaNota.ru - самый крупный в мире бесплатный архив песенных текстов, аккордов, табулатур и нот


Madrugada - Nightly Disease Part Ii - таба, бас-таба, видео

Регистрация Запомнить меня
Войти через:  Facebook Google Twitter Vk Yandex Mail.ru

Madrugada - Nightly Disease Part Ii - таба, бас-таба, видео

Печатать
Просмотров: 155
Author/Artist: Madrugada 
Title: Nightly Disease Part II
Album: The Nightly Disease
Transcribed by: DMS & RH

Standard tuning (EADGBE)

m = palm mute
u = strum upwards

Intro and and main riff.

e||---------------------------------------------------------------|
B||---------------------------------------------------------------|
G||---------------------------------------------------------------|
D||--2-2-2-0-2-0-2-0-2-0-2-0-2-0-------2--22222--------2--22222---|
A||--2-2-2-0-2-0-2-0-2-0-2-0-2-0-------2--22222--------2--22222---|
E||--0-0-0---0---0---0---0---0---3p2p0-0--00000--3p2h3-0--00000---|
m . . . . u m u m u m u m u          up/down         up/down

Chorus riff:

e||---------------------------------------------------------------|
B||--------------------1--1-1-------------------------------------|
G||--------------------0--0-0-------------------------------------|
D||--2-2-2-2-2-2-------2--2-2-------------------------------------|
A||--2-2-2-2-2-2-------3--3-3-------------------------------------|
E||--0-0-0-0-0-0--3-2---------------------------------------------|


Intro

Verse 1 (main riff):
There is a hole in the night that the city keeps travelling round
There is a hole in the roof where the ego comes down
There is a hole in the closet where the coats go to fly
There is a hole in the closet where noisy cats go to die

C               
I step away from the window
     G                     Em
I am struck by a nightly disease
C
Something has been coming 
                          
For a long time it's been crawling
       G                          Em
Out of pitch-black and expanding seas
C
It's clearly headed in my direction
     Bm
I am strong but I need protection

Chorus (riff):
There is a hole in my heart tonight

Verse 2 (main riff):
Ah there were times when I had just one eye
It took a field to fly and a bird to cry
Or just a bad foot and a bad-fingered hand
Just a bad foot and a bad-fingered hand

C                                                G     Em
That sort of memory is no match for my poisonous pen
C
Big, bad, boy approaches the mirror
       G                  Em
With a dead black bird in his bad-fingered hand
C
Hand extended in my direction
     Bm
I am strong but I need protection

Chorus (riff):
There is a hole in my heart tonight

(main riff)

C
Hand extended in my direction
     Bm
I am strong but I need protection

(main riff):
Just a bad foot and a bad-fingered hand
Добавлено: 28.07.2012
Другие материалы по этой песне:
  • Аккорды и текст

Страница создана 12.05.2012
http://primanota.ru/madrugada/nightly-disease-part-ii-chords.htm
Привет, Гость.
Предлагаем пройти революционный курс по гитаре.
Подарок от PrimaNota.Ru, забирай!