PrimaNota.ru - самый крупный в мире бесплатный архив песенных текстов, аккордов, табулатур и нот


Madrugada - Frontman - таба, видео

Регистрация Запомнить меня
Войти через:  Facebook Google Twitter Vk Yandex Mail.ru

Madrugada - Frontman - таба, видео

Печатать
Просмотров: 133
Author/Artist:  Madrugada
Title:          The Frontman
Album:          The Nightly Disease
Transcribed by: Jo Skeie Hermansen
Email: Jo_skeie@hotmail.com

The picking might not be 100% correct, but I believe that all the chords are.
Most of the fills are still missing.

-|-----------------|-----------------|---------------------|------------------|
-|-----------------|-----------------|---------------------|------------------|
-|-----------------|-----------------|---------------------|---2-----2---2----|
-|-----------------|-----------------|---2-----2---2-----2-|-----0h2----------|
-|-----------------|-----------------|-----0h2-------0h2---|-0---------0------|
-|-0-0-0-0-0-0-0-0-|-0-0-0-0-0-0-0-0-|-0---------0---------|------------------|
   Bass intro                          Guitar         4x

-------|--------------------|---------------------|----------------------|----|
-------|--------------------|---------------------|----------------------|----|
-----2-|--------------------|---2-----2---2-----2-|----------------------|----|
-0h2---|---2-----2---2-----2|-----0h2-------0h2---|---2-----2---2-----2--|----|
-------|-----0h2-------0h2--|-0---------0---------|-----0h2-------0h2----|----|
-------|-0---------0--------|---------------------|-0---------0----------|----|
  2x                 2x                   2x                        2x

---------------------|---------------------|---------------------|------------|
---------------------|---------------------|---------------------|------------|
---2-----2---2-----2-|---------------------|---2-----2---2-----2-|------------|
-----0h2-------0h2---|---2-----2---2-----2-|-----0h2-------0h2---|---2-----2--|
-0---------0---------|-----0h2-------0h2---|-0---------0---------|-----0h2----|
---------------------|-0---------0---------|---------------------|-0----------|
 (Drums enter here)2x                 2x                    2x

-----------|---------------------|---------------------|----------------------|
-----------|---------------------|---------------------|----------------------|
-----------|---2-----2---2-----2-|---------------------|---2-----2---2-----2--|
---2-----2-|-----0h2-------0h2---|---2-----2---2-----2-|-----0h2-------0h2----|
-----0h2---|-0---------0---------|-----0h2-------0h2---|-0---------0----------|
-0---------|---------------------|-0---------0---------|----------------------|
        2x                   2x                     2x                   2x

-|---------------------|------------------------|------------------------|----|
-|---------------------|------------------------|------------------------|----|
-|---------------------|------------------------|----7-----7-----7-----7-|----|
-|---2-----2---2-----2-|----5-----5-----5-----5-|-------7-----------7----|----|
-|-----0h2-------0h2---|-------5-----------5----|-5-----------5----------|----|
-|-0---------0---------|-3-----------3----------|------------------------|----|
 2x chorus starts here         picking might not be 100% correct

---------------------|------------------------|------------------------|------|
---------------------|------------------------|------------------------|------|
---------------------|------------------------|----7-----7-----7-----7-|------|
---2-----2---2-----2-|----5-----5-----5-----5-|-------7-----------7----|------|
-----0h2-------0h2---|-------5-----------5----|-5-----------5----------|------|
-0---------0---------|-3-----------3----------|------------------------|------|
           2x

---------------------|------------------------|------------------------|------|
---------------------|------------------------|------------------------|------|
---------------------|----5-----5-----5-----5-|------------------------|------|
---2-----2---2-----2-|-------5-----------5----|----5-----5-----5-----5-|------|
-----0h2-------0h2---|-3-----------3----------|-------5-----------5----|------|
-0---------0---------|------------------------|-3-----------3----------|------|
           2x

-|------------------------------|---------------------------------------------|
-|-12---------------------------|---------------------------------------------|
-|-------14--12--------17-------|---------------------------------------------|
-|--------------14-----17-------|---------------------------------------------|
-|------------------------------|---------------------------------------------|
-|------------------------------|---------------------------------------------|
     Second guitar: 01:39

------------------------|---------------------|------------------------|------|
------------------------|---------------------|------------------------|------|
----7-----7-----7-----7-|---------------------|------------------------|------|
-------7-----------7----|---2-----2---2-----2-|----5-----5-----5-----5-|------|
-5-----------5----------|-----0h2-------0h2---|-------5-----------5----|------|
------------------------|-0---------0---------|-3-----------3----------|------|


-----------------------|---------------------|---------------------|----------|
-----------------------|---------------------|---------------------|----------|
----7-----7----7-----7-|---------------------|---2-----2---2-----2-|----------|
-------7----------7----|---2-----2---2-----2-|-----0h2-------0h2---|---2------|
-5----------5----------|-----0h2-------0h2---|-0---------0---------|-----0h2--|
-----------------------|-0---------0---------|---------------------|-0--------|
                               2x                   2x

-------------|---------------------|---------------------|--------------------|
-------------|---------------------|---------------------|--------------------|
-------------|---2-----2---2-----2-|---------------------|---2-----2---2------|
-2---2-----2-|-----0h2-------0h2---|---2-----2---2-----2-|-----0h2-------0h2--|
-------0h2---|-0---------0---------|-----0h2-------0h2---|-0---------0--------|
---0---------|---------------------|-0---------0---------|--------------------|
    2x                 2x                  2x                     2x

---|---------------------|---------------------|------------------------|-----|
---|---------------------|---------------------|------------------------|-----|
-2-|---------------------|---2-----2---2-----2-|------------------------|-----|
---|---2-----2---2-----2-|-----0h2-------0h2---|----5-----5-----5-----5-|-----|
---|-----0h2-------0h2---|-0---------0---------|-------5-----------5----|-----|
---|-0---------0---------|---------------------|-3-----------3----------|-----|
          2x                       2x

------------------------|---------------------|------------------------|------|
------------------------|---------------------|------------------------|------|
----7-----7-----7-----7-|---------------------|------------------------|------|
-------7-----------7----|---2-----2---2-----2-|----5-----5-----5-----5-|------|
-5-----------5----------|-----0h2-------0h2---|-------5-----------5----|------|
------------------------|-0---------0---------|-3-----------3----------|------|
                                  2x

------------------------|---------------------|-----------------|-------------|
------------------------|---------------------|-----------------|-------------|
----7-----7-----7-----7-|---------------------|-5-5-5-5-5-5-5-5-|-------------|
-------7-----------7----|---2-----2---2-----2-|-5-5-5-5-5-5-5-5-|-5-5-5-5-5-5-|
-5-----------5----------|-----0h2-------0h2---|-3-3-3-3-3-3-3-3-|-5-5-3-5-5-5-|
------------------------|-0---------0---------|-----------------|-3-3-3-3-3-3-|
                                 2x                distortion through out

-----|------------------------|---------------------|-------------------------|
-----|------------------------|---------------------|-------------------------|
-----|----7-----7-----7-----7-|---------------------|-------------------------|
-5-5-|-------7-----------7----|---2-----2---2-----2-|----5-----5-----5-----5--|
-5-5-|-5-----------5----------|-----0h2-------0h2---|-------5-----------5-----|
-3-3-|------------------------|-0---------0---------|-3-----------3-----------|
 the rest of the song(not sure about the picking here)

-|------------------------|---------------------|---------------------|-------|
-|------------------------|---------------------|---------------------|-------|
-|----7-----7--------7----|---------------------|---2-----2---2-----2-|-------|
-|-------7--------7-----7-|---2-----2---2-----2-|-----0h2-------0h2---|-------|
-|-5-----------5----------|-----0h2-------0h2---|-0---------0---------|-------|
-|------------------------|-0---------0---------|---------------------|-------|
                                     2x                  2x

-|---------------------|---------------------|---------------------|----------|
-|---------------------|---------------------|---------------------|----------|
-|---------------------|---2-----2---2-----2-|---------------------|----------|
-|---2-----2---2-----2-|-----0h2-------0h2---|---2-----2---2-----2-|----------|
-|-----0h2-------0h2---|-0---------0---------|-----0h2-------0h2---|----------|
-|-0---------0---------|---------------------|-0---------0---------|----------|
         2x                      2x                    2x

-|---------------------|---------------------|---------------------|----------|
-|---------------------|---------------------|---------------------|----------|
-|---2-----2---2-----2-|---------------------|---2-----2---2-----2-|----------|
-|-----0h2-------0h2---|---2-----2---2-----2-|-----0h2-------0h2---|----------|
-|-0---------0---------|-----0h2-------0h2---|-0---------0---------|----------|
-|---------------------|-0---------0---------|---------------------|----------|
           2x                  2x                       2x

-|------------------------|------------------------|---------------------|----|
-|------------------------|------------------------|---------------------|----|
-|------------------------|----7-----7--------7----|---------------------|----|
-|----5-----5-----5-----5-|-------7--------7-----7-|---2-----2---2-----2-|----|
-|-------5-----------5----|-5-----------5----------|-----0h2-------0h2---|----|
-|-3-----------3----------|------------------------|-0---------0---------|----|
                                                             2x

-|------------------------|------------------------|---------------------|----|
-|------------------------|------------------------|---------------------|----|
-|------------------------|----7-----7-----7-----7-|---------------------|----|
-|----5-----5-----5-----5-|-------7-----------7----|---2-----2---2-----2-|----|
-|-------5-----------5----|-5-----------5----------|-----0h2-------0h2---|----|
-|-3-----------3----------|------------------------|-0---------0---------|----|
                                                             2x

-|-------------------------|------------------------|-------------------------|
-|-------------------------|------------------------|-------------------------|
-|----5-----5-----5-----5--|------------------------|----7-----7-----7-----7--|
-|-------5-----------5-----|----5-----5-----5-----5-|-------7-----------7-----|
-|-3-----------3-----------|-------5-----------5----|-5-----------5-----------|
-|-------------------------|-3-----------3----------|-------------------------|


--|---------------------|------------------------|----------------------------|
--|---------------------|------------------------|----------------------------|
--|---------------------|------------------------|----7-----7-----7-----7-----|
--|---2-----2---2-----2-|----5-----5-----5-----5-|-------7-----------7--------|
--|-----0h2-------0h2---|-------5-----------5----|-5-----------5--------------|
--|-0---------0---------|-3-----------3----------|----------------------------|


-|----------------------------------------------------------------------------|
-|----------------------------------------------------------------------------|
-|----------------------------------------------------------------------------|
-|--2-------------------------------------------------------------------------|
-|--2-------------------------------------------------------------------------|
-|--0-------------------------------------------------------------------------|
Добавлено: 29.02.2012
Другие материалы по этой песне:
  • Аккорды и текст

Страница создана 29.02.2012
http://primanota.ru/madrugada/frontman-chords.htm
Привет, Гость.
Предлагаем пройти революционный курс по гитаре.
Подарок от PrimaNota.Ru, забирай!