PrimaNota.ru - самый крупный в мире бесплатный архив песенных текстов, аккордов, табулатур и нот


Madonna - Don - аккорды и текст, видео

Регистрация Запомнить меня
Войти через:  Facebook Google Twitter Vk Yandex Mail.ru

Madonna - Don - аккорды и текст, видео

Печатать
Просмотров: 196
Don
Madonna
Эти aккopды взяты из oфициaльнoгo cбopникa
aккopдoв к пecням Мaдoнны, выпyщeнным Warner Brothers.

Пpoигpыш:	D Am C G } 3 times

D     Am         C      G
Кyплeт:		Don't tell me to stop
D        Am           C     G
Tell the rain not to drop
D        Am           C
Tell the wind not to blow
G               D   Am
Cause you said so
C       G
M.......MM....
D        Am            C
Tell the sun not to shine
G      D       Am
not to get up this time
C         G
no........no.......
D      Am             C
Let it fall by the way
G         D        Am       C     G
But don't leave me where I lay down.

Пpoигpыш:	C G  D Am C G D Am C G   C G

D        Am           C  G
Припев:
Tell the bed not to lay like the
D     Am          C     G
Open mouth of grave yeah
D      Am           C  G
Not to stare up at me like a
D         Am         C   G
Calf down on its knees
D    Am C                G
Tell me love isn't true
          D         Am       C    G
It's just something that we do.
D    Am C              G
Tell me everythung I'm not
    D          Am             C
But don't ever tell me to stop
G
Don't you ever...
D            Am          C       G       D
Please don't.........Please don't........Please don't
Am          C
tell me to stop.
G              D         Am C G D Am
Don't you ever tell me.

Verse 2:	Tell me love ian't true,
It's just something that we do.
Tell me everything I'm not,
But please don't tell me to stop.
Tell the leaves not to turn
But don't ever tell me I'll learn.
Take the black off a crow
But don't tell me I have to go.

-

[----0/2-----------------------------------------------------------------------
-------3-----1----------------------------------------------------------------
--2------------x------0--x----------------------------------------------------
-00-----0---22-x--0/2----x-------0--------------------------------------------
----------0------3-----3-----0/2----------------------------------------------
---------------------------3------3-------------------------------------------

----0/2-----------------------------------------------------------------------
-------3-----1----------------------------------------------------------------
--2------------x------0-x-----------------------------------------------------
-00-----0---22-x----2---x-----------------------------------------------------
----------0------33---3------000-0--------------------------------------------
--------------------------33--------------------------------------------------]

D      A           C  G
Don't tell me to stop
D          A           C  G
Tell the rain not to drop
D         A            C  G
Tell the wind not to blow
            D    A  C  G
Cause you said so  Mm Mm
D         A           C  G
Tell the sun not to shine
      D      A       C    G
Not to get up this time, no no
D       A           C  G
Let it fall by the way, but don't
D          A      C   G
Leave me where I lay down

D  A  C  G } x2

D    A    C         G
Tell me love isn't true
           D         A       C  G
It's just something that we do
D    A  C               G
Tell me everything I'm not
      D           A           C  G
But please don't tell me to stop
 D        A              C  G
Tell the leaves not to turn
           D     A           C    G
But don't ever tell me I'll learn, no no
 D         A           C   G
Take the black off a crow
           D          A      C  G
But don't tell me I have to go
 D        A          C  G
Tell the bed not to lay
          D     A          C      G
Like the open mouth of a grave, yeah
D        A         C  G
Not to stare up at me
         D        A       C  G
Like a calf down on its knees
Tell me love isn't true
It's just something that we do
D    A  C               G
Tell me everything I'm not
     D          A           C  G
But don't ever tell me to stop
                D    A  C           G
Don't you ever tell me love isn't true
           D         A       C  G
It's just something that we do
D    A  C               G
Tell me everything I'm not
     D          A           C  G
But don't ever tell me to stop
Добавлено: 13.11.2013
Другие материалы по этой песне:
  • Аккорды и текст

Страница создана 13.11.2013
http://primanota.ru/madonna/don-chords.htm
Привет, Гость.
Предлагаем пройти революционный курс по гитаре.
Подарок от PrimaNota.Ru, забирай!