PrimaNota.ru - самый крупный в мире бесплатный архив песенных текстов, аккордов, табулатур и нот


Lynyrd Skynyrd - You Got That Right - текст песни, таба, бас-таба, видео

Регистрация Запомнить меня
Войти через:  Facebook Google Twitter Vk Yandex Mail.ru

Lynyrd Skynyrd - You Got That Right - текст песни, таба, бас-таба, видео

Печатать
Просмотров: 211
Авторы музыки: Ronnie Van Zant, Steve Gaines

You got that right- Skynyrd.
Tab by Daniel Hart "dhart2 at comcast dot net"
I couldnt find this tab anywhere. So I gave it a try.


Intro Chord progression:
F Bb C7   C7 Bb F F

    F     Bb      C7      C7        Bb        F     F
----1------1------3-------3---------1---------1-----1--|
----1------3------4-------4---------3---------1-----1--|
----2------3------3-------3---------3---------2-----2--|
----3------3------5-------5---------3---------3-----3--|
----3------1------3-------3---------1---------3-----3--|
----1-----------------------------------------1-----1--|

I play it this way because it gives good tone, and fill. I have seen skynyrd play it at the
8th and 10t fret.


Intro lead riff - played with a slide, or with fingers.
-----------------------13------8--6-----13v- 13-8--6---------|
-------------9b----------------------6---------------8----6v-|
-----------------10v-----------------------------------------|
-------------------------------------------------------------|
----------8--------------------------------------------------|
---6(7)------------------------------------------------------|
    b

Part 1 (bridge to verse)
Guitar 1
---------------------|
---------------------|
---------------------|
---6------8-------10-|
---4------6-------8--|
---------------------|

Guitar 2 (slide)
----------------------|
----------------------|
---6------8-------10--|
---6------8-------10--|
----------------------|
----------------------|

0:14 Verse- I play the power chords. Recording plays some blues rock riffs on another track.

    F
---------------------------------------|
---------------------------------------|
----10---------------------------------|
----10---------------------------------|
----8----------------------------------|
---------------------------------------|
       Well I heard lots of people say their gonna settle down.


    Bb
-----------------------------------------------------------|
-----------------------------------------------------------|
-----------------------------------------------------------|
----8------------------------------------------------------|
----8------------------------------------------------------|
----6------------------------------------------------------|
      You dont see their faces and they dont come around

    F                                           C
---------------------------------------------------------------------|
---------------------------------------------------------------------|
----10------------------------------------------5---------5--6--7--8-|
----10------------------------------------------5---------5--6--7--8-|
----8-------------------------------------------3---------3--4--5--6-|
---------------------------------------------------------------------|
      Well Im not that way      I got to move along


Bridge to Chorus
  Eb                      Bb                Eb                 Bb
--------------------------------------------------------------------|
--------------------------------------------------------------------|
--8-----------------------------------------8-----------------------|
--8-----------------------8-----------------8------------------8----|
--6-----------------------8-----------------6------------------8----|
--------------------------6------------------------------------6----|
    I like to drink and dance all night   Comes to a fix not afraid to fight

O:33
Chorus:
Intro Chords over again.

You got that right!
Said You got that right!
sure got that right!

Play Part 1.

Back to verse progression again.

Seems so long I been out on my own
Travel light and I'm always alone
Guess I was born with a travellin' bone

Play bridge to chorus
When my times up, I'll hold my own
You won't find me in an old folks home

Chorus again.


Bidge to solo.
1:14
---------------------|
---------------------|
---------------------|
---6------8-------10-|
---4------6-------8--|
---------------------|

Guitar 2 (slide)
----------------------|
----------------------|
---6------8-------10--|
---6------8-------10--|
----------------------|
----------------------|
I tried everything in my life
Things I like I try 'em twice
You got that right

The first time I think first 4 notes are played in reverse of whats tabbed here.
-----------------------------------------------------------------------|
-----------------------------------------------------------------------|
-----------------------------------------------------------------------|
------7-----5----3---2------3---------------7----5---3---2-------1-2-3-|
----8-----6----4---3----1-3---------------8----6----4--3---1-2-3-------|
-------------------------------1---------------------------------------|
    You sure            got that right!

Slide Solo goes here- I have not worked on that yet.

Back to verse:
Travellin' around the world, just singing my song
I got to go, Lord I can't stay long
Here comes that ol' travellin' jones once again
I like to drink and to dance all night
Comes to a fix not afraid to fight

Chorus
You got that right
Said, you got that right
Well you got that right
Sure got that right

---------------------------------|
---------------------------------|
---------------------------------|
------7-----5----3---2------3----|
----8-----6----4---3----1-3------|
-------------------------------1-|
PLay x4.... then Tacet.    "Uh"

Song changes key for the finale. Solo over progression (I Have not worked on it)

    G       C       D      D      C     G    G
----3-------3-------5------5------3-----3----3----------|
----3-------5-------7------7------5-----3----3----------|
----4-------5-------7------7------5-----4----4----------|
----5-------5-------7------7------5-----5----5----------|
----5-------3-------5-------------3-----5----5----------|
----3-----------------------------------3----3----------|

             Eb                      F
--------------------------------------------------------|
--------------------------------------------------------|
--------------8----------------------10-----------------|
--------------8----------------------10-----------------|
--------------6----------------------8------------------|
--------------------------------------------------------|


--------------------------------------------------------|
--------------------------------------------------------|
--------------------------------------------------------|
------9----7----5----4--------5-------------------------|
---10----8----6----5----3--5----------------------------|
--------------------------------3-----------------------|
                           ^  ^ ^ Drop thess notes on the ending (4th time).


Play 4X's On the 4Th time play the ending
--------------------------------3------------------------|
--------------------------------3------------------------|
---------------3---7-9-7--------4------------------------|
---------3-4-5---5-------5------5------------------------|
---3-4-5------------------------5------------------------|
--------------------------------3------------------------|
Добавлено: 19.04.2012
Другие материалы по этой песне:

Страница создана 20.03.2012
http://primanota.ru/lynyrd-skynyrd/you-got-that-right-chords.htm
Привет, Гость.
Предлагаем пройти революционный курс по гитаре.
Подарок от PrimaNota.Ru, забирай!