PrimaNota.ru - самый крупный в мире бесплатный архив песенных текстов, аккордов, табулатур и нот


Lynyrd Skynyrd - Simple Kind Of Man - таба, видео

Регистрация Запомнить меня
Войти через:  Facebook Google Twitter Vk Yandex Mail.ru

Lynyrd Skynyrd - Simple Kind Of Man - таба, видео

Печатать
Просмотров: 146
Artist : lynyrd skynyrd
Song : simple kind of man
Tabbed by : Frederic Briere
Ilie_cobra@hotmail.com


h - hammer on
p - pull off
b - bend string up
bb- 1 1/2 tone bend
H - hold bend
r - release bend
/ - slides
~ - vibrato
t - right hand tap
x - play 'note' with heavy damping


You gotta tune flat. In Eb

Main Riff

    C                     G

E----------------------------------------------------------
B---------------1------------------------------------------
G---------0-------0---0-----------0------------------------
D-----------2-------2-------0-------0---0------------------
A---0-2-3-----3---------------2-------2--------------------
E-------------------------3-----3--------------------------


     Am

E------------------------------3---------------------------
B-------------1----------1-------1-------------------------
G-------2-------2---2------2-------------------------------
D---------2-------2----------2-----------------------------
A----0------0----------0-----------------------------------
E----------------------------------------------------------


Chorus (same chords)

This is the lead


        C       G              Am
E----------------------------------------------------------
B----------------------------------------------------------
G----------------------------------------------------------
D----------------------------------------------------------
A---0-2-3---5br-3-------5br-3------------------------------
E------------------3~----------5~-----0-3-0-3/5~-----------


    C       G        Am

E----------------------------------------------------------
B----------------------------------------------------------
G---5------------------------------------------------------
D---5-------5--------7-----------5------5/7----------------
A---3-------5--------7-----------5------5/7----------------
E-----------3--------5--------0--3---0--3/5----------------




Solo :


E----------------------------------------------------------
B---------8------8-------8----8-----------------5----------
G-----5-7-7brb---7br-p5--7----7br--5---------/7---7--------
D-------------------------------------7~-------------------
A----------------------------------------------------------
E----------------------------------------------------------



E-----5/8--8--10-5~-------------15----15------15----15-----
B-----5/8--8--10-5~-------13-15-15b---15br-13-15~---15br---
G----------------------------------------------------------
D----------------------------------------------------------
A----------------------------------------------------------
E----------------------------------------------------------


                            Make 22 note while holding bend

E-----------15b~------17-20-20b-20H-20H-20H-22-20~---------
B----13----------------------------------------------------
G-------14-------------------------------------------------
D----------------------------------------------------------
A----------------------------------------------------------
E----------------------------------------------------------


E-----17-------------------------------17-----------17-----
B--------17-20b----20br p17-20~----/17----20b---/17----20b-
G----------------------------------------------------------
D----------------------------------------------------------
A----------------------------------------------------------
E----------------------------------------------------------


E--------17-----------17-----------------------------------
B----/17----20b---/17----17-20b-------------------8--------
G------------------------------------/5-7-5-7brb--H-7r-p5--
D----------------------------------------------------------
A----------------------------------------------------------
E----------------------------------------------------------


E----------------------------------------------------------
B---------------10-8-10~--------------------------13-15----
G-----7-br---/9---------------5-7/9-9/12-12/14-14----------
D---------------------------7------------------------------
A----------------------------------------------------------
E----------------------------------------------------------


E---15---------15---------------------15b------------------
B---15b-----------15br----15br-13--------------------------
G---------/14---------------------14-----------------------
D--------------------------------------------17------------
A-----------------------------------------------17br-p15---
E----------------------------------------------------------


E----------------------------------------------------------
B----------------------------------------------------------
G----------------------------------------------------------
D----------------------------------------------------------
A----------------------------------------------------------
E---17~----------------------------------------------------

That's it. It's fairly simple. There are two guitars in the solo by the way. 
But this sounds correct, doesn't it?

     
Добавлено: 28.10.2013
Другие материалы по этой песне:
  • Аккорды и текст

Страница создана 28.10.2013
http://primanota.ru/lynyrd-skynyrd/simple-kind-of-man-chords.htm
Привет, Гость.
Предлагаем пройти революционный курс по гитаре.
Подарок от PrimaNota.Ru, забирай!