PrimaNota.ru - самый крупный в мире бесплатный архив песенных текстов, аккордов, табулатур и нот


Lynyrd Skynyrd - Searchin - текст песни, таба, видео

Регистрация Запомнить меня
Войти через:  Facebook Google Twitter Vk Yandex Mail.ru

Lynyrd Skynyrd - Searchin - текст песни, таба, видео

Печатать
Просмотров: 180
Lynyrd Skynyrd
Searchin


In this solo there are two guitarist playing different things, i
have allen collins part in it.
I would listen to the solo so you know when to play each section
of the solo.



b     =     Bend
~     =     Vibrate
s     =     Slide 
h     =     Hammer-on
p     =     Pull-off




Here's The Solo:

|-----7-------------------------------------------------------|
|-10b---10-12~--12-10-----------------------------------------|
|---------------------11b-9~---7-9p7---7-9b-7--------7--------|
|------------------------------------9--------9~~------9~~----|
|-------------------------------------------------------------|
|-------------------------------------------------------------|
Stop for 2-4 seconds


|------------------------------------------------------------------------------|
|-----12----12--15b-15~---12h15p12-----12-----12-------12--15b~-15-12----------|
|-s14----14------------------------14b~---14b~---14b~-----------------14-14b~~-|
|------------------------------------------------------------------------------|
|------------------------------------------------------------------------------|
|------------------------------------------------------------------------------|
Stop for 2-4 seconds


|----------------17-----17-----17-----17-----17-----17--------------------------------------|
|17p15-17p15-17b----17b----17b----17b----17b----17b----17b-17b-17b-17b--17p15-17p15-17p15---|
|----------------------------------------------------------------------------------------16~|
|-------------------------------------------------------------------------------------------|
|-------------------------------------------------------------------------------------------|
|-------------------------------------------------------------------------------------------|
Stop for 2-4 seconds



|--------------------------------------------------17b-17~-15h17p15-------------------------------|
|s12-12~-12h14-12-14~-14h15-14-15-17b~-17p15-17p15------------------17b~-17p15-17p15-17p15-17p15--|
|-----------------------------------------------------------------------------------------------16|
|-------------------------------------------------------------------------------------------------|
|-------------------------------------------------------------------------------------------------|
|-------------------------------------------------------------------------------------------------|



That's it...


Добавлено: 26.04.2012
Другие материалы по этой песне:

Страница создана 02.03.2012
http://primanota.ru/lynyrd-skynyrd/searchin-chords.htm
Привет, Гость.
Предлагаем пройти революционный курс по гитаре.
Подарок от PrimaNota.Ru, забирай!