PrimaNota.ru - самый крупный в мире бесплатный архив песенных текстов, аккордов, табулатур и нот


Ludacris - Roll Out - аккорды и текст, таба, бас-таба, видео

Регистрация Запомнить меня
Войти через:  Facebook Google Twitter Vk Yandex Mail.ru

Ludacris - Roll Out - аккорды и текст, таба, бас-таба, видео

Печатать
Просмотров: 182
Roll Out
Ludacris
Ludacris
"Roll Out"
Transcribed: Philip Hyde (An 80's rocker that will tab rap)
'My Own Work'
Song:
 
  G A D D    D A
--3-5----------5-----------
--5-7-5-5----5-7-----------
--5-7-7-7----7-7-----------
------7-7----7-------------
---------------------------
---------------------------
 
The boring original hook which is
boring to play and hear on a guitar
  |   |   |   |   |   |   |   |   |
e-----------------------------------
B-----------------------------------
G-----------2-----------3---2-------
D-----0---3-------------------------
A-0---------------------------------
E-----------------------------------
repeat ad infinitum
 
Or a cooler continually picked version
which is cooler for the fingers and ear
  |   |   |   |   |   |   |   |   |
e-----------------------------------
B-----------------------------------
G---------0-2-------0-2-3---2-------
D-----0-3-----0-2-3-----------3-2---
A-0-3-------------------------------
E-----------------------------------
also repeat ad infinitum
     
Добавлено: 29.07.2013
Другие материалы по этой песне:

Страница создана 23.02.2012
http://primanota.ru/ludacris/roll-out-chords.htm
Привет, Гость.
Предлагаем пройти революционный курс по гитаре.
Подарок от PrimaNota.Ru, забирай!