PrimaNota.ru - самый крупный в мире бесплатный архив песенных текстов, аккордов, табулатур и нот


Ludacris - Get Back - текст песни, бас-таба, видео

Регистрация Запомнить меня
Войти через:  Facebook Google Twitter Vk Yandex Mail.ru

Ludacris - Get Back - текст песни, бас-таба, видео

Печатать
Просмотров: 431
-------------------------------------------------------------------------------
			     GET BACK - Ludacris ft. Sum 41
-------------------------------------------------------------------------------

Verse 
G-----------------|
D-----------------|
A-----------------| x3
E-1-1-1-1-4-4-4-3-|

Pause… then :12
G----------|
D----------|
A----------|
E--12/1----|

Chorus :12
G--------------------------|--------------------------|
D--------------------------|--------------------------|
A-3333-6666-5-3333---------|-3333-6666-5-333----------| x2
E------------------666-888-|-----------------66-88----|

Pause...
Verse x8 :34

Riff 1 1:00
G----------------------------|
D----------------------------|
A----------------------------|x1
E-1--1-4-—4-1--1--1010—1-4-4-|

Verse x3 1:05

Riff 2 1:13
G--------------------|
D--------------------|
A---------3333-5555--|x1
E--111-44------------|

Chorus x2 1:16

Riff 3 1:37
G--------------|
D--------------|
A--------------| x8
E-1--1-4--4/1--|

Verse x3 1:58



Riff 4 2:06
G-----------------|
D-----------------|
A-----------------|x1
E-1-1-1-1-000-111-|

Verse x3 2:09

Riff 5 2:17
G-------------------|
D-------------------|
A-------------------|x1
E-1-1-1-1-0000-1111-|

Chorus x2 2:19

Riff 6 2:41
G----------------------------------|
D----------------------------------|
A----------------------------------|x1
E-0000-4--00-0-3-00-0-2-00-1-------|
	
Riff 7 2:46	
G----------------------------------|
D----------------------------------|
A----------------------------------|x1
E-00-0-4--00-0-3-00-0-2-00-1-00-3--|

Riff 6 x1 2:51
Riff 7 x1 2:57
Verse  x8 3:02
Chorus at 3:23 til the end!


| /  slide up
| \  slide down
| h  hammer-on
| p  pull-off
| ~  vibrato
| +  harmonic
| x  Mute note
===============================================================================
Добавлено: 04.04.2012
Другие материалы по этой песне:
  • Аккорды и текст

Страница создана 26.02.2012
http://primanota.ru/ludacris/get-back-chords.htm
Привет, Гость.
Предлагаем пройти революционный курс по гитаре.
Подарок от PrimaNota.Ru, забирай!