PrimaNota.ru - самый крупный в мире бесплатный архив песенных текстов, аккордов, табулатур и нот


Lucy Rose - Place - таба, видео

Регистрация Запомнить меня
Войти через:  Facebook Google Twitter Vk Yandex Mail.ru

Lucy Rose - Place - таба, видео

Печатать
Просмотров: 300
Авторы музыки: Lucy Rose
Авторы текста: Lucy Rose
-------------------------------------------------------------------------------
                             Place (Acoustic) - Lucy Rose
-------------------------------------------------------------------------------
Tabbed by: Roger of Rohan
E-mail: roger at rogerhub.com

This is based off her acoustic version:
http://www.youtube.com/watch?v=xcWANb9nlUg

Tuning: DADF#BD + Capo 4

(Basically, Drop D, keep 5th and 4th strings on standard, and apply 1 and 2
 flats to the 3rd and 1st strings respectively.)

Intro and Verse
 D|--------------|--------------|----------------------|
 B|---------0----|--------------|-------0---------0----|
F#|-------0---0--|--------------|-----0---0-----0---0--|
 D|--------------|--------------|----------------------|
 A|-2------------|-5------0-----|----------------------|
 D|--------------|--------------|--5---------2---------|

(Variations on fingering)
 D|--------------|--------------|----------------------|
 B|---------0----|--------------|-------0---------0----|
F#|-------0---0--|--------------|-----0---0-----0---0--|
 D|--------------|--------------|----------------------|
 A|-0h2----------|-5------0-----|----------------------|
 D|--------------|--------------|--5-------4/2---------|

Transition from verse to chorus
 D|---------------|-----------------|-0-----|-----|
 B|---------------|-----------------|-0-----|-----|
F#|---------------|-----------------|-0-----|-----|
 D|---------------|-----------------|-X-----|-----|  (x2)
 A|-2-------5-----|-7-------9-------|-5-----|-----|
 D|---------------|-----------------|-5-----|-----|

Chorus and Bridge
(Strum accordingly)

 D|-0---|-0---|-0---|                      |-0---|
 B|-0---|-0---|-0---|                      |-0---|
F#|-0---|-0---|-0---|                      |-0---|
 D|-x---|-x---|-x---|                      |-x---|
 A|-9---|-5---|-2---| with an occasional   |-7---|
 D|-9---|-5---|-2---|                      |-7---|

The order of these chords goes something like:

|9   |9   |5 2 |5 2 |

Watch the video for clarification (it shows her fingering very clearly, haha).
The bridge also uses the fourth chord (77X000).

I really liked the emotional intensity of this song, and I hope
that you will too. Have fun, and please leave a comment if you have
any corrections.
Добавлено: 23.08.2013
Другие материалы по этой песне:
  • Аккорды и текст

Страница создана 23.08.2013
http://primanota.ru/lucy-rose/place-chords.htm
Привет, Гость.
Предлагаем пройти революционный курс по гитаре.
Подарок от PrimaNota.Ru, забирай!