PrimaNota.ru - самый крупный в мире бесплатный архив песенных текстов, аккордов, табулатур и нот


Love Live School Idol Project - Aishiteru Banzai - аккорды и текст, видео

Регистрация Запомнить меня
Войти через:  Facebook Google Twitter Vk Yandex Mail.ru

Love Live School Idol Project - Aishiteru Banzai - аккорды и текст, видео

Печатать
Просмотров: 970
Уроки эстрадного вокала в Санкт-Петербурге
Aishiteru Banzai
Love Live School Idol Project
Figure 1:
Esus4 strum 3 times, strum E 2 times

Figure 2:
E Esus4 E

E            B
Aishiteru banzai! 
     G#m     E       A            B     F#      B
Koko de yokatta watashitachi no ima ga koko ni aru 
E            B
Aishiteru banzai! 
G#m  G#      C#m     A          G#m       A B         Figure 1  
Hajimatta bakari ashita mo yoroshiku ne mada  gooru janai 

  A                B         G#m    C#m 
Waratte yo kanashinara fuki to basou yo 
  A                 B        G#m G#    C#m
Waraetara kawaru keshiki harema ga nozoku 
  A                 B       G#     G#m  C#m  
Fuan demo shiawase e to tsunagaru michi ga 
   A          B    Figure 1
Miete kita yo na aozora 

A                B              Fig2 G# G#m  C#m
 Tokidoki ame ga furu kedo mizu ga nakucha taihen 
B      E                  A                    B
 Kawaicha dameda yo minna no yume no ki yo sodate 

Saa! 
 E            B
Daisuki da banzai! 
    G#m     E       A            B     F#      B
Makenai yuuki watashitachi wa ima wo tanoshimou 
 E            B
Daisuki da banzai! 
G#m    G# C#m    A           G#m    A B       Figure 1  
Ganbarerukara kinoo ni te o futte hora mae muite 

  A                B         G#m    C#m 
Susunde yo kurushikute mo tonari ni iteyo 
  A                 B   G#m G#    C#m
Susundara moeru taiyo azuma o terasu 
  A                 B       G#         C#m  
Mayotteta kotae ga nai saki e no michi wa 
    A       B    Figure 1
Daremo shiranai ienai 
A                B          Fig2  G# G#m C#m
 Totsuzen arashi no naka e ochiru gin no hikari  
B      E                  A                     B
 Obiecha dame da yo minna no yume no ki wa tsuyoi 

Sa! 
E            B
Aishiteru banzai! 
     G#m     E       A            B     F#      B
Koko de yokatta watashitachi no ima ga koko ni aru 
E            B
Aishiteru banzai! 
G#m  G#      C#m     A          G#m       A B         Figure 1  
Hajimatta bakari ashita mo yoroshiku ne mada  gooru janai 

Verse:

e|--2---2---2---2---2---2---2---2---|
B|--2---2---2---2---2---2---2---2---|
G|--2---2---2---2---2---2---2---2---|
D|--4---4---4---4---4---4---4---4---|
A|--4---4---4---4---4---4---4---4---|
E|--2---2---2---2---2---2---2---2---|

e|--0---0---0---0---0---0---0---0---|
B|--2---2---2---2---2---2---2---2---|
G|--2---2---2---2---2---2---2---2---|
D|--2---2---2---2---2---2---2---2---|
A|--0---0---0---0---0---0---0---0---|
E|----------------------------------|

e|--------------------------------------------------------|
B|--------------------------------------------------------|
G|--1------1----------------------------------------------|
D|---------------4-----4-----2-----2--------2-----5--4--2-|
A|------2-----2-----2-----2-----2------2------------------|
E|--------------------------------------------------------|

e|--2---2---2---2---2---2---2---2---|
B|--2---2---2---2---2---2---2---2---|
G|--2---2---2---2---2---2---2---2---|
D|--4---4---4---4---4---4---4---4---|
A|--4---4---4---4---4---4---4---4---|
E|--2---2---2---2---2---2---2---2---|

e|--4---4---4---4---4---4---4---4---|
B|--4---4---4---4---4---4---4---4---|
G|--4---4---4---4---4---4---4---4---|
D|--6---6---6---6---6---6---6---6---|
A|--6---6---6---6---6---6---6---6---|
E|--4---4---4---4---4---4---4---4---|

e|--5---5---5---5---5---5---5---5---|
B|--5---5---5---5---5---5---5---5---|
G|--5---5---5---5---5---5---5---5---|
D|--7---7---7---7---7---7---7---7---|
A|--7---7---7---7---7---7---7---7---|
E|--5---5---5---5---5---5---5---5---|

e|--2---2---2---2---2---2---2---2---|
B|--4---4---4---4---4---4---4---4---|
G|--4---4---4---4---4---4---4---4---|
D|--4---4---4---4---4---4---4---4---|
A|--2---2---2---2---2---2---2---2---|
E|----------------------------------|


E                G#          Fig2  G# G#m C#m
Tokidoki ame ga furu nda kaze de miki ga yureru 
       E       F#       A                    B
 Issho ni iku nda minna no yume no ki yo sodate 

Sa! 
 E            B
Daisuki da banzai! 
    G#m     E       A            B     F#      B
Makenai yuuki watashitachi wa ima wo tanoshimou 
 E            B
Daisuki da banzai! 
G#m    G# C#m    A           G#m    A B       Figure 1  
Ganbarerukara kinoo ni te o futte hora mae muite 



La-la-la part:

E   B  G#m    E
A   E  A      B
E   B  G# G#m C#m
A   B  E 
E   B  G#m    C#m 
A   E  A      B  
E   B  G# G#m C#m
A   B  E
F#m B  E
Добавлено: 16.10.2014
Другие материалы по этой песне:

Страница создана 16.10.2014
http://primanota.ru/love-live-school-idol-project/aishiteru-banzai-chords.htm
Привет, Гость.
Предлагаем пройти революционный курс по гитаре.
Подарок от PrimaNota.Ru, забирай!