PrimaNota.ru - самый крупный в мире бесплатный архив песенных текстов, аккордов, табулатур и нот


Lostprophets - Push Out The Jive, Bring In The Love - текст песни, таба, видео

Регистрация Запомнить меня
Войти через:  Facebook Google Twitter Vk Yandex Mail.ru

Lostprophets - Push Out The Jive, Bring In The Love - текст песни, таба, видео

Печатать
Просмотров: 64
-------------------------------------------------------------------------------
Push Out The Jive Bring In The Love- Lostprophets
-------------------------------------------------------------------------------
Tabbed by: Carlito-T
This tab is for one guitar but you can play it with two ( the second one plays the bass note 
with power chords, be careful with the F# )^^



Tuning:DADGBe

e|---X-X-X---X-X-X-X-X-X-X---X-X-X-----X-X-X---X-X-X-X-X-X-X---X-X-X--------------|
B|---7-7-7---7-7-7-7-7-7-7---7-7-7-----7-7-7---7-7-7-7-7-7-7---8-8-8--------------|
G|---7-7-7---7-7-7-7-7-7-7---7-7-7-----7-7-7---7-7-7-7-7-7-7---7-7-7--------------|
D|---X-X-X---X-X-X-X-X-X-X---X-X-X-----5-5-5---5-5-5-5-5-5-5---X-X-X--------------|
A|---7-7-7---7-7-7-7-7-7-7---7-7-7-----5-5-5---5-5-5-5-5-5-5---5-7-7\-------------|
D|---X-X-X---X-X-X-X-X-X-X---X-X-X-----5-5-5---5-5-5-5-5-5-5---X-X-X--------------|

e|-----------------0-0-0-0---0-0-0---X-X-X---X-X-X-X-X-X-X---5-5-5----------------|
B|---0-0-0---0-0-0-0-0-0-0---0-0-0---7-7-7---7-7-7-7-7-7-7---X-X-X----------------|
G|---0-0-0---0-0-0-0-0-0-0---0-0-0---0-0-0---0-0-0-0-0-0-0---X-X-X----------------|
D|---2-2-2---2-2-2-2-2-2-2---2-2-2---4-4-4---4-4-4-4-4-4-4---4-4-4----------------|
A|---3-3-3---3-3-3-3-3-3-3---3-3-3-0-5-5-5---5-5-5-5-5-5-5---5-5-5----------------|
D|-----------------------------------------------------------4-4-4----------------|
  
e|---X-X-X---X-X-X-X-X-X-X---X-X-X-----X--X--X----X--X--X--X--X--X--X----X--X--X--|
B|---7-7-7---7-7-7-7-7-7-7---7-7-7----10-10-10---10-10-10-10-10-10-10----8-10-10--|
G|---7-7-7---7-7-7-7-7-7-7---7-7-7-----0--0--0----0--0--0--0--0--0--0----0--0--0--|
D|---X-X-X---X-X-X-X-X-X-X---X-X-X-0---0--0--0----0--0--0--0--0--0--0----0--0--0--|
A|---7-7-7---7-7-7-7-7-7-7---7-7-7---7-9--9--9----9--9--9--9--9--9--9----9-10-10\-|
D|---X-X-X---X-X-X-X-X-X-X---X-X-X-----X--X--X----X--X--X--X--X--X--X----X--X--X--|

e|-----------------0-0-0-0---0-0-0---X-X-X---X-X-X-X-X-5-5---5-5-5----------------|
B|---0-0-0---0-0-0-0-0-0-0---0-0-0---7-7-7---7-7-7-7-0-0-0---0-0-0----------------|
G|---0-0-0---0-0-0-0-0-0-0---0-0-0---0-0-0---0-0-0-0-0-0-0---0-0-0----------------|
D|---2-2-2---2-2-2-2-2-2-2---2-2-2---4-4-4---4-4-4-4-4-4-4---4-4-4----------------|
A|---3-3-3---3-3-3-3-3-3-3---3-3-3-0-5-5-5---5-5-5-5-5-5-5---5-5-5----------------|
D|--------------------------------------------------------------------------------|
 


************************************

| /   slide up
| \   slide down
| h   hammer-on
| p   pull-off
| ~   vibrato
| +   harmonic
| x   Mute note
| b   Bend
| pb  Pre-bend
| br  Bend release
| pbr Pre-bend release
| brb Bend release bend

************************************
Добавлено: 29.07.2015
Другие материалы по этой песне:
  • Аккорды и текст

Страница создана 03.05.2012
http://primanota.ru/lostprophets/push-out-the-jive-bring-in-the-love-chords.htm
Привет, Гость.
Предлагаем пройти революционный курс по гитаре.
Подарок от PrimaNota.Ru, забирай!