PrimaNota.ru - самый крупный в мире бесплатный архив песенных текстов, аккордов, табулатур и нот


Lostprophets - AC Ricochet - текст песни, таба, видео

Регистрация Запомнить меня
Войти через:  Facebook Google Twitter Vk Yandex Mail.ru

Lostprophets - AC Ricochet - текст песни, таба, видео

Печатать
Просмотров: 197
-------------------------------------------------------------------------------
			    AC Richochet-Lostprophets
-------------------------------------------------------------------------------
Tabbed by:matt bugby
Email:tears--dont--fall@hotmail.co.uk

Tuning: drop c# ( C# G# C# F# A# D#)

i think this song is off their new single found it on youtube and thought it was good so 
tabbed it out
most of it seems right just drop a line if you think anything should be changed.

Intro
e|---------------------------------------------------------------------------|
B|---------------------------------------------------------------------------|
G|--14141414-1616161617-10101010-88888-1212----------------------------------|
D|---------------------------------------------------------------------------|
A|--12121212-1414141415-8888-----55555-1010----------------------------------|
E|---------------------------------------------------------------------------|

then rhythm comes in playing the chorus

Chorus
e|---------------------------------------------------------------------------|
B|---------------------------------------------------------------------------|
G|---------------------------------------------------------------------------|
D|-7777777-999109-33333333-00000--7777777-999109-33333333-00000-555----------|
A|-7777777-999109-33333333-00000--7777777-999109-33333333-00000-555----------|
E|-7777777-999109-33333333-00000--7777777-999109-33333333-00000-555----------|

Verse

Leads
e|---------------------------------------------------------------------------|
B|---------------------------------------------------------------------------|
G|--14141414-1616161617-10101010-88888-1212----------------------------------|
D|---------------------------------------------------------------------------|
A|--12121212-1414141415-8888-----55555-1010----------------------------------|
E|---------------------------------------------------------------------------|
when rhythm comes in leads changes to this
e|---------------------------------------------------------------------------|
B|---------------------------------------------------------------------------|
G|--14141414-1616161617-2119-1717-1919-1717-1919-1917-1414-------------------|
D|---------------------------------------------------------------------------|
A|--12121212-1414141415-1917-1515-1717-1515-1717-1715-1212-------------------|
E|---------------------------------------------------------------------------|
second time
e|---------------------------------------------------------------------------|
B|---------------------------------------------------------------------------|
G|--14141414-1616161617-2119-14141414-14141617-1919--------------------------|
D|---------------------------------------------------------------------------|
A|--12121212-1414141415-1917-12121212-12121415-1717--------------------------|
E|---------------------------------------------------------------------------|

Rhythm
e|---------------------------------------------------------------------------|
B|---------------------------------------------------------------------------|
G|---------------------------------------------------------------------------|
D|-7777777-999109-33333333-00000--7777777-999109-33333333-00000-555----------|
A|-7777777-999109-33333333-00000--7777777-999109-33333333-00000-555----------|
E|-7777777-999109-33333333-00000--7777777-999109-33333333-00000-555----------|

Prechorus

Leads
e|-17~-15~-10~-8-10-5~--17~-15~----------------------------------------------|
B|---------------------------------------------------------------------------|
G|---------------------------------------------------------------------------|
D|---------------------------------------------------------------------------|
A|---------------------------------------------------------------------------|
E|---------------------------------------------------------------------------|
leads can be tremolo picked or just played as above either sounds fine

Rhythm
e|---------------------------------------------------------------------------|
B|---------------------------------------------------------------------------|
G|-77777777-55555555----------77777777-55555555------------------------------|
D|-77777777-55555555-77777777-77777777-55555555------------------------------|
A|-55555555-33333333-77777777-55555555-33333333------------------------------|
E|-------------------77777777------------------------------------------------|

Chorus

Verse

Chorus

Bridge

Leads
e|---------------------------------------------------------------------------|
B|---------------------------------------------------------------------------|
G|-14----------------141414161717-161616171919-171717192121-191919211919-----|
D|-----X alot-then-----------------------------------------------------------|
A|-12----------------121212141515-141414151717-151515171919-171717191717-----|
E|---------------------------------------------------------------------------|

Rhythm
e|---------------------------------------------------------------------------|
B|---------------------------------------------------------------------------|
G|---------------------------------------------------------------------------|
D|-7~------------------------------------------------------------------------|
A|-7~---777-555-333-333------------------------------------------------------|
E|-7~---777-555-333-333--X4--------------------------------------------------|

Chorus

end on
e|---------------------------------------------------------------------------|
B|---------------------------------------------------------------------------|
G|---------------------------------------------------------------------------|
D|--77777--------------------------------------------------------------------|
A|--77777--------------------------------------------------------------------|
E|--77777--------------------------------------------------------------------|

| /  slide up
| \  slide down
| h  hammer-on
| p  pull-off
| ~  vibrato
| +  harmonic
| x  Mute note
===============================================================================
Добавлено: 17.06.2013
Другие материалы по этой песне:
  • Аккорды и текст

Страница создана 30.06.2012
http://primanota.ru/lostprophets/ac-ricochet-chords.htm
Привет, Гость.
Предлагаем пройти революционный курс по гитаре.
Подарок от PrimaNota.Ru, забирай!