PrimaNota.ru - самый крупный в мире бесплатный архив песенных текстов, аккордов, табулатур и нот


Lostprophets - Omen - бас-таба, видео

Регистрация Запомнить меня
Войти через:  Facebook Google Twitter Vk Yandex Mail.ru

Lostprophets - Omen - бас-таба, видео

Печатать
Просмотров: 424
Уроки эстрадного вокала в Санкт-Петербурге
Lostprophts Cover of "Omen" by The Prodigy. They haven't made a studio recording 
of this song (Hopefully they will), and only perform it live.
I love the original and this cover, and could be used as a fun encore sort of song 
if you're in a band, has a good floor filler atmosphere to this song.  
This is the best version of the Lostprophets cover of this song. 
http://www.youtube.com/watch?v=5XBDbt6KBjA&feature=related 

Intro / Chorus
 G|----------------------------------------------------------------------------|
 D|----------------------------------------------------------------------------|
 A|2--2-2-2-2--2-2-2-----------------------------------------------------------| - First time
 E|------------------3--3-3-3--5--5-5-5--0--0-0-0--0--0-0-0--3--3-3-3--5-5-5-5-| there a slight  
                                                                    pause before the open notes.
 G|-----------------------|
 D|-----------------------| 
 A|-----------------------|- Quickly end the intro and choruses with this just 
 E|5-4321-----------------| before "Now the writing's on a wall..."


Verse PT.1			Verse PT.2
 G|-----------------------|  ---------------------------------------------|
 D|-----------------------|  ---------------------------------------------|
 A|-2---------------------|  -2-------------------------------------------|
 E|---3--5--0--3--5-------|  ---3--5--0--333333--555555-------------------|

Chorus - Same as the intro

Heavy Bridge bit
 G|-----------------------|
 D|-----------------------|
 A|-----------------------| After the first chorus, play this 4 times
 E|5-4321-----------------|

Bridge 1:51
 G|-----------------------|----------------------|
 D|-----------------------|----------------------|
 A|-2(Hold)-2(Hold)-------|-2--------------------|
 E|-----------------------|---3--5--0--3--5------|

Guitar Solo - 2:17
 G|----------------------------------------------------------------------------|
 D|----------------------------------------------------------------------------|
 A|2--2-2-2-2--2-2-2-----------------------------------------------------------|- Repeat
 E|------------------3--3-3-3--5--5-5-5--0--0-0-0--0--0-0-0--3--3-3-3--5-5-5-5-| until 2:42 

Outro
 G|-----------------------|
 D|-----------------------|
 A|-----------------------| Repeat until the end
 E|5-4321-----------------|


I actually started this tab because I made a tab for the main melody, but then I 
thought I'd just tab out the rest of the song. 
I made the song tab as how the Lostprophets bassist plays it, but if you're 
interested in playing the main melody, here it is.
After all, why should the guitarist have all of the glory? ;)
 
 G|-------1516151615------------------11--------|		
 D|-------------------12--11-12-11-12-----------|
 A|-14------------------------------------------|Repeat	
 E|---------------------------------------------|

This can be used for the intro and choruses. 
Добавлено: 11.03.2012
Другие материалы по этой песне:
  • Аккорды и текст

Страница создана 11.03.2012
http://primanota.ru/lostprophets/omen-chords.htm
Привет, Гость.
Предлагаем пройти революционный курс по гитаре.
Подарок от PrimaNota.Ru, забирай!