PrimaNota.ru - самый крупный в мире бесплатный архив песенных текстов, аккордов, табулатур и нот


Lostprophets - Our Broken Hearts - текст песни, таба, видео

Регистрация Запомнить меня
Войти через:  Facebook Google Twitter Vk Yandex Mail.ru

Lostprophets - Our Broken Hearts - текст песни, таба, видео

Печатать
Просмотров: 140
Уроки эстрадного вокала в Санкт-Петербурге
Lostprophets "Our Broken Hearts"
Tabbed by phatviper36@yahoo.com
I love this song but found nothing out here for it so I decided to tab it
Its my first one so if there is anything wrong feel free to make corrections


Slide = /
Harmonics = 
Mute = x
Palm Mute = .


INTRO AND CHOURS
Guitar I
E------------------------------------------|
B------------------------------------------|
G------------------------------------------|
D---4-4--6-7-6---6------4-4--6-7-6---6-----|
A---4-4--------7---7/9--4-4--------7---7/9-|
---4-4-----------------4-4-----------------|

E--------------------------------------------|
B--------------------------------------------|
G--------------------------------------------|
D---0-0--6-7--0-0--6-6--0-0--6-6--0-0--6-6---|
A---0-0-------0-0--7-9--0-0--7-9--0-0--7-9---|
D---0-0-------0-0-------0-0-------0-0--------|


Guitar II
E---------------------------------------------------------------------------|
B---------------------------------------------------------------------------|
G------14-/-16-/-14-----14-/-18-/-14-/-9-/-14-/-16-/-14-/-11-/-14-/-18-/-16-|
D-4-4---x----x----x-4-4--x----x---x----x----x----x---x-----x----x----x----x-|
A-4-4--12-/-14-/-12-4-4-12-/-16-/-12-/-7-/-12-/-14-/-12-/--9-/-12-/-16-/-14-|
D-4-4---------------4-4-----------------------------------------------------|

Verse
E--------------------------------------------------------------------------|
B--------------------------------------------------------------------------|
G--------------------------------------------------------------------------|
D---4-4---<7>-<7>-<7>-------------------4-4-4--<7>-<7>-<7>-----------------|
A---4-4---------------<7>-<7>-<7>-<7>---4-4-4--------------<7>-<7>-<7>-<7>-|
D---4-4---------------------------------4-4-4------------------------------|

E--------------------------------------------------------------------------|
B--------------------------------------------------------------------------|
G--------------------------------------------------------------------------|
D---0-0---<7>-<7>-<7>-------------------2-2-2--<7>-<7>-<7>-----------------|
A---0-0---------------<7>-<7>-<7>-<7>---2-2-2--------------<7>-<7>-<7>-<7>-|
D---0-0---------------------------------2-2-2------------------------------|

(Pre-Chours)
Listen to the song to figure out timing
    (And you say.......)
E---------------------------------------------------------------------------|
B---------------------------------------------------------------------------|
G---------------------------------------------------------------------------|
D--6-6-6-6-6-6-6-6-6-6-6-6-6-6-6-6-6-6-0-0-0-0-0-0-0-0-0-2-2-2-2-2-2-2-2-2--|
A--4-4-4-4-4-4-4-4-4-4-4-4-4-4-4-4-4-4-0-0-0-0-0-0-0-0-0-2-2-2-2-2-2-2-2-2--|
D--4-4-4-4-4-4-4-4-4-4-4-4-4-4-4-4-4-4-0-0-0-0-0-0-0-0-0-2-2-2-2-2-2-2-2-2--|
       . . . . . . .     . . . . . . .     . . . . . . .     . . . . . . .
             (PM)

(Riff 1)
Play Once the First time during Pre-chours
E------------------------------------------------------------------------|
B------------------------------------------------------------------------|
G--------------------------------------------------------------4-X-X-4-6-|
D----------------------------------------------------6-x-x-6-7-----------|
A--------------------------------------7-9-7-x-x-7-9---------------------|
D------------------------------------------------------------------------|


E--------------------------------------------------------------------------|
B--------------------------------------------------------------------------|
G--------------------------------------------------------------------------|
D--6-6-6-6-6-6-6-6-6-6-6-6-6-6-6-6-6-6-0-0-0-0-0-0-0-0-0-2-2-2-2-2-2-2-2-2-|
A--4-4-4-4-4-4-4-4-4-4-4-4-4-4-4-4-4-4-0-0-0-0-0-0-0-0-0-2-2-2-2-2-2-2-2-2-|
D--4-4-4-4-4-4-4-4-4-4-4-4-4-4-4-4-4-4-0-0-0-0-0-0-0-0-0-2-2-2-2-2-2-2-2-2-|
       . . . . . . .     . . . . . . .     . . . . . . .     . . . .


Bridge (Play three times)
E------------------------------------------------------------------|
B------------------------------------------------------------------|
G--9-9-7-7-7-7-9-9-7-7-7-7-9-9-7-7-7-7-9-9-7-7-7-7-----------------|
D--9-9-7-7-7-7-9-9-7-7-7-7-9-9-7-7-7-7-9-9-7-7-7-7-----------------|
A--7-7-5-5-5-5-7-7-5-5-5-5-7-7-5-5-5-5-7-7-5-5-5-5-----------------|
D------------------------------------------------------------------|

E------------------------------------------------------------------|
B------------------------------------------------------------------|
G--11-11-9-9-9-9-11-11-9-9-9-9-------------------------------------|
D--11-11-9-9-9-9-11-11-9-9-9-9-------------------------------------|
A---9--9-7-7-7-7--9--9-7-7-7-7-------------------------------------|
D------------------------------------------------------------------|

E----------------------|
B----------------------|
G----2---4---6---7-----|
D----2---4---6---7-----|
A----0---2---4---5-----|
D----------------------|


(The little solo he does - not too sure its sounds almost alike)
E----------------------------------------------------------|
B----10-9--------12-9-------15-14-------17-15-14-----------|
G---------10----------10----------14-------------14/0------|
D------------10----------10----------14--------------------|
A----------------------------------------------------------|
D----------------------------------------------------------|

Third Time Through
E------------------------------------------------------------------|
B------------------------------------------------------------------|
G--9-9-7-------9-9-7-------9-9-7-------9-9-7-----------------------|
D--9-9-7-0-0-0-9-9-7-0-0-0-9-9-7-0-0-0-9-9-7-0-0-0-----------------|
A--7-7-5-0-0-0-7-7-5-0-0-0-7-7-5-0-0-0-7-7-5-0-0-0-----------------|
D--------0-0-0-------0-0-0-------0-0-0-------0-0-0-----------------|
         . . .       . . .       . . .       . . .

Guitar I
E------------------------------------------------------------------------|
B------------------------------------------------------------------------|
G------------------------------------------------------------------------|
D--6-7-6---6---------6-7-6---6-----0-0--6-7-0-0--6-6-0-0--6-6-0-0--6-6---|
A--------7---7/9-----------7---7/9-0-0------0-0--7-9-0-0--7-9-0-0--7-9---|
D----------------------------------0-0------0-0------0-0------0-0--------|

Guitar II
E-------------------------------------------------------------------------|
B-------------------------------------------------------------------------|
G----------------------------------9-/-14-/-16-/-14-/-11-/-14-/-18-/-16---|
D---4-4-4------4-4-4---------------x----x----x---x-----x----x----x----x---|
A---4-4-4------4-4-4---------------7-/-12-/-14-/-12-/--9-/-12-/-16-/-14---|
D---4-4-4------4-4-4------------------------------------------------------|


Guitar I
E--------------------------------------------|
B--------------------------------------------|
G--------------------------------------------|
D---4-4--6-7-6---6------4-4--6-7-6---6-------|
A---4-4--------7---7/9--4-4--------7---7/9---|
D---4-4-----------------4-4------------------|

E--------------------------------------------|
B--------------------------------------------|
G--------------------------------------------|
D---0-0--6-7--0-0--6-6--0-0--6-6--0-0--6-6---|
A---0-0-------0-0--7-9--0-0--7-9--0-0--7-9---|
D---0-0-------0-0-------0-0-------0-0--------|

Guitar II
E---------------------------------------------------------------------------|
B---------------------------------------------------------------------------|
G------14-/-16-/-14-----14-/-18-/-14-/-9-/-14-/-16-/-14-/-11-/-14-/-18-/-16-|
D-4-4---x----x----x-4-4--x----x---x----x----x----x---x-----x----x----x----x-|
A-4-4--12-/-14-/-12-4-4-12-/-16-/-12-/-7-/-12-/-14-/-12-/--9-/-12-/-16-/-14-|
D-4-4---------------4-4-----------------------------------------------------|


End
E---------------------------------------------------------------------------|
B---------------------------------------------------------------------------|
G---------------------------------------------------------------------------|
D-4-4-4-4-4-4-4-4-4-4-4-4-4-4-4-4-4-4-4-0-0-0-0-0-0-0-0-0-2-2-2-2-2-2-2-2-2-|
A-4-4-4-4-4-4-4-4-4-4-4-4-4-4-4-4-4-4-4-0-0-0-0-0-0-0-0-0-2-2-2-2-2-2-2-2-2-|
D-4-4-4-4-4-4-4-4-4-4-4-4-4-4-4-4-4-4-4-0-0-0-0-0-0-0-0-0-2-2-2-2-2-2-2-2-2-|
      . . . . . . .     . . . . . . . .     . . . . . . .     . . . . . . .

E---------------------------------------------------------------------------|
B---------------------------------------------------------------------------|
G---------------------------------------------------------------------------|
D-4-4-4-4-4-4-4-4-4-4-4-4-4-4-4-4-4-4-4-0-0-0-0-0-0-0-0-0-2-2-2-2-2-2-2-2-2-|
A-4-4-4-4-4-4-4-4-4-4-4-4-4-4-4-4-4-4-4-0-0-0-0-0-0-0-0-0-2-2-2-2-2-2-2-2-2-|
D-4-4-4-4-4-4-4-4-4-4-4-4-4-4-4-4-4-4-4-0-0-0-0-0-0-0-0-0-2-2-2-2-2-2-2-2-2-|
      . . . . . . .     . . . . . . . .     . . . . . . .     . . . . . . .

E----------------------------------------------------------------------|
B----------------17----------------17--------------17--------------17--|
G---14-16-14-16-------14-16-14-16-----14-16-14-16-----14-16-14-16------|
D----------------------------------------------------------------------|
A----------------------------------------------------------------------|
D----------------------------------------------------------------------|

End on this
E-----------------------|
B-----------------------|
G-----------------------|
D----4~-----------------|
A----4~-----------------|
D----4~-----------------|

E-----------------------|
B-------------17--------|
G--------14-------16----|
D-----------------------|
A-----------------------|
D-----------------------|
Добавлено: 30.05.2012
Другие материалы по этой песне:
  • Аккорды и текст

Страница создана 30.05.2012
http://primanota.ru/lostprophets/our-broken-hearts-chords.htm
Привет, Гость.
Предлагаем пройти революционный курс по гитаре.
Подарок от PrimaNota.Ru, забирай!