PrimaNota.ru - самый крупный в мире бесплатный архив песенных текстов, аккордов, табулатур и нот


Lostprophets - Broken Hearts Torn Up Letters And Stories Of A Lonely Girl - таба, видео

Регистрация Запомнить меня
Войти через:  Facebook Google Twitter Vk Yandex Mail.ru

Lostprophets - Broken Hearts Torn Up Letters And Stories Of A Lonely Girl - таба, видео

Печатать
Просмотров: 72
Drop D...
Here goes...
intro (you can divide this for 2 guitars if u like)
E-----3-3-----3-3-----------3-3-----3-3---------------3-3-----3-3-------|
B-----5-5-----5-5-----------5-5-----5-5---------------5-5-----5-5-------|
G-----------------------------------------------------------------------|
D-----------------------------------------------------------------------|
A-0-0-----0-0-----0-0-3-0-0-----0-0-----12-12-12\-0-0-----0-0-----0-0-3-|
D-----------------------------------------------------------------------|

E-----3-3-----3-3--------|
B-----5-5-----5-5--------|
G------------------------|
D------------------------|x2
A-0-0-----0-0-----0-0-3--|
D------------------------|

verse:
E------|
B------|
G------|
D-7~-\-
A-7~-\-
D-7~-\-

E---------------------------------------------|
B---------------------------------------------|
G---------------------------------------------|
D-3-3-3-3--5-5-5-5--7-7-7-7--7-7-7-7----------|x4
A-3-3-3-3--5-5-5-5--7-7-7-7--7-7-7-7----------|
D-3-3-3-3--5-5-5-5--7-7-7-7--7-7-7-7----------|

chorus:
E--------------------------------------------------------------------|
B--------------------------------------------------------------------|
G-5-5-5-5-------------------------5-5-5-5----------------------------|
D-5-5-5-5-5-5-5-5-7-7-7-7-7-7-7-7-5-5-5-5-5-5-5-5-3-3-3-3-3-3-3-3----|x2
A-3-3-3-3-5-5-5-5-7-7-7-7-7-7-7-7-3-3-3-3-5-5-5-5-3-3-3-3-3-3-3-3----|
D---------5-5-5-5-7-7-7-7-7-7-7-7---------5-5-5-5-3-3-3-3-3-3-3-3----|

play intro, verse and chorus again then the verse twice with this for guitar 2:
E--------------------|
B--------------------|
G-7-7-7--5-5-5-------|
D-x-x-x--x-x-x-------|x5
A-5-5-5--3-3-3-------|
D--------------------|

       Then play the chorus until it says "times like these won't last for ever!" then 
verse with this for guitar 2:
E--------------------|
B--------------------|
G-7-7-7--5-5-5-------|
D-x-x-x--x-x-x-------|x5
A-5-5-5--3-3-3-------|
D--------------------|
and end on
E-----
B-----
G-----
D-7~--
A-7~--
D-7~--
 my emails phillycheese000@aim.com... email me if there's any mistakes... enjoy!
Добавлено: 20.06.2013
Другие материалы по этой песне:
  • Аккорды и текст

Страница создана 20.06.2013
http://primanota.ru/lostprophets/broken-hearts-torn-up-letters-and-stories-of-a-lonely-girl-chords.htm
Привет, Гость.
Предлагаем пройти революционный курс по гитаре.
Подарок от PrimaNota.Ru, забирай!