PrimaNota.ru - самый крупный в мире бесплатный архив песенных текстов, аккордов, табулатур и нот


Lordi - Nonstop Nite - текст песни, бас-таба, видео

Регистрация Запомнить меня
Войти через:  Facebook Google Twitter Vk Yandex Mail.ru

Lordi - Nonstop Nite - текст песни, бас-таба, видео

Печатать
Просмотров: 139
Авторы: Ox, Awa, Petri Kangas, Tracy Lipp, Mr. Lordi, Amen, Kita

-----------------------------------------------------------------------------
                             Nonstop Nite - Lordi
-----------------------------------------------------------------------------
Tabbed by: Andu Needle
E-mail: sulfur_in_my_lungs@yahoo.com

Intro:

G|---------------012--------------------------------|
D|-----------012------------------------------------|
A|-00-00-003----------------------------------------|
E|--------------------------------------------------|(x3)

G|--------------------------------------------------|
D|--------------------------------------------------|
A|----0----0----------------------------------------|
E|-3~---30---30-3~----------------------------------|

Verse:

The bass kicks in with the main riff.

G|---------------012--------------------------------|
D|-----------012------------------------------------|
A|-00-00-003----------------------------------------|
E|--------------------------------------------------|(x3)

G|--------------------------------------------------|
D|--------------------------------------------------|
A|----0----0----------------------------------------|
E|-3~---30---30-3~----------------------------------|

Pre chorus:

G|--------------------------------------------------|
D|--------------------------------------------------|
A|----------33333333----------00000000--------------|
E|-11111111----------33333333-----------------------|

G|--------------------------------------------------|
D|--------------------------------------------------|
A|----------33333333-55555555-77777777--------------|
E|-11111111-----------------------------------------|

Chorus:

G|--------------------------------------------------|
D|--------------------------------------------------|
A|-0000-----------0000------3333--------------------|
E|------1111-3333------1111------335----------------|(x2)

Post chorus:

G|--------------------------------------------------|
D|--------------------------------------------------|
A|---------3---------5---------5--------------------|
E|-355-355---355-355---355-355---335----------------|(x2)

Main riff again!

Verse 2:

The rhythm is pretty tricky. I don't know exactly how to tab this part but the good news 
is that you can hears the bass pretty clear.

G|---------------------------------------------------|
D|---------------------------------------------------|
A|-0-0-3-757753(x3)----0----0------------------------|
E|------------------3~---30---30-3-------------------|

G|---------------012---------------------------------|
D|-----------012-------------------------------------|
A|-00-00-003-----------------------------------------|
E|---------------------------------------------------|(x3)

G|---------------------------------------------------|
D|---------------------------------------------------|
A|----0----0-----------------------------------------|
E|-3~---30---30-3~-----------------------------------|

Pre chorus 2 is the same as the first one!
Chorus 2 is the same as the first one!
Post chorus 2 is the same as the first one!

Solo:

G|---------------012----------------------------------|
D|-----------012--------------------------------------|
A|-00-00-003------------------------------------------|
E|----------------------------------------------------|(x3)

G|----------------------------------------------------|
D|----------------------------------------------------|
A|----0----0------------------------------------------|
E|-3~---30---30-3~------------------------------------|

G|----------------------------------------------------|
D|----------------------------------------------------|
A|----------------------------------------------------|
E|-11111111(x2)---------------------------------------|

The last chorus is the same as the others!

Ending:

The ending part of the song is basically the post chorus part.

G|----------------------------------------------------|
D|----------------------------------------------------|
A|---------3---------5---------5----------------------|
E|-355-355---355-355---355-355---335------------------|(x2)
Добавлено: 01.11.2013
Другие материалы по этой песне:

Страница создана 22.05.2012
http://primanota.ru/lordi/nonstop-nite-chords.htm
Привет, Гость.
Предлагаем пройти революционный курс по гитаре.
Подарок от PrimaNota.Ru, забирай!