PrimaNota.ru - самый крупный в мире бесплатный архив песенных текстов, аккордов, табулатур и нот


Lordi - Raise Hell In Heaven - текст песни, таба, видео

Регистрация Запомнить меня
Войти через:  Facebook Google Twitter Vk Yandex Mail.ru

Lordi - Raise Hell In Heaven - текст песни, таба, видео

Печатать
Просмотров: 189
Уроки эстрадного вокала в Санкт-Петербурге
Song: Raise Hell In Heaven
Band: Lordi
Tabbed by: unspeakable.elvis@gmail.com

Standard tuning

.   = palm mute
{5} = natural harmonic


Intro/Outro          (notes above played after 1st chorus by 2nd guitar)
||---------------------------------||
||---------------------------------||
||-------------------------7h9-9-9-||
||---------------------------------||
||-------------------------5h7-7-7-||
||-0---3-0-0-5-0-0-6-0-7-0---------||



Verse (followed each time by intro riff)
||-----------------------------------------------------------||
||---------------3---------------------------3---------------||
||-5-------------2-------------5-------------2-------5-------||
||-5-------------0-------------5-------------0-------5-------||
||-3---0-0-0-0-0-----0-0-0-0-0-3---0-0-0-0-0-----0-0-3---0-0-||
||-----------------------------------------------------------||
       . . . . .     . . . . .     . . . . .     . .     . .


Bridge
||-----------------------------|-----------------------------|
||-----------------------------|-----------------------------|
||-----------------------------|-----------------------------|
||-4---------------------------|-----------------------------|
||-2---------------------------|-5-------------7------4---5--|
||-----------------------------|-3-------------5-------------|


|-----------------------------|-----------------------------|
|-----------------------------|-----------------------------|
|-----------------------------|---------------------3---3---|
|-4---------------------------|-----------7-4-------2---2---|
|-2---------------------------|-5-5-5-5-7-5-2-------0---0---|
|-----------------------------|-3-3-3-3-5-------------------|
                                . . . . 
                                                 "raise hell in..."
|-----------------------------|-----------------------------||
|-5---------------------------|-----------------------------||
|-4---------rest--------------|----------rest---------------||
|-2---------------------------|-----------------------------||
|-----------------------------|-----------------------------||
|-----------------------------|-----------------------------||



Chorus

"heaven...           raise hell in heaven..."
||----------------------------------------------------------------|
||----------------------------------------------------------------|
||o-5-------------------------------------------------------------|
||o-5-------------------------------2-----------------------------|
||--3-------------------------------2-----------------------------|
||----------------------------------0-----------------------------|


|----------------------------------------------------------------||
|-3--------------------------------------------------------------||
|-2-------------------------------2-----------------------------o||
|-0-------------------------------2-----------------------------o||
|---------------------------------0---------------0-------0---2--||
|-----------------------------------------------------3----------||


|---------------------------------------------------------------|
|---------------------------------3-----------------------------|
|-5-------------------------------2-----------------------------|
|-5-------------------------------0-----------------------------|
|-3-----------------3---2---0-----------------------------------|
|-------------------------------3----------{2}{3}{4}{5}{6}{7}{7}|
                                         (slide up the string playing the
                                          natural harmonics as you go)
Return to Intro, Verse, Bridge, Chorus


After second chorus:
||------------------------------|------------------------------||
||------------------------------|------------------------------||
||o-----------------------------|-----------------------------o||
||o-----------------------------|-----------------------------o||
||-----5--------------2---2---2-|----5--------------2----------||
||-/7-----6--5--3-0---0---0---0-|/7-----6--5--3-0-0-0----------||
                                                . . 

||------------------------------|-----------------------------------|
||------------------------------|-----------------------------------|
||-3-------------------------3--|--------------------------------3--|
||-2-------------------------2--|--------------------------------2--|
||-1-------------------------1--|--------------------------------1--|
||-----0-0-0-0-0-0-0-0-0-0-0----|--0-0-0-0-0-0-0-0-0-0-0-0-0-0-0----|
       . . . . . . . . . . .       . . . . . . . . . . . . . . .

|------------------------------|-----------------------------------||
|------------------------------|-----------------------------------||
|-3-------------------------3--|-----------------------------------||
|-2-------------------------2--|-----------------------------------||
|-1-------------------------1--|-------------------5-----5-----5---||
|-----0-0-0-0-0-0-0-0-0-0-0----|-000-0-000-0-000-0-3-0-0-3-0-0-3-0-||
      . . . . . . . . . . .      ... . ... . ... .   . .   . .   .


Play twice:
||-----------------------------|-------------------------------||
||-----------------------------|-------------------------------||
||o----------------------------|------------------------------o||
||o-7----7----5----5-----------|-9----9----7----7-------------o||
||--5----4----3----2-----------|-7----6----5----4------5---5---||
||-----------------------------|-----------------------3---3---||


|------------------------------|-------------------------------|
|------------------------------|-------------------------------|
|-2----------------------------|-4-------------------5-5-5-5-5-|
|-2----------------------------|-4-------------------5-5-5-5-5-|
|-0----------------------------|-2-------------------3-3-3-3-3-|
|------------------------------|-------------------------------|

                                                "raise hell in..."
|------------------------------|-----------------------------||
|------------------------------|-----------------------------||
|-5-\-------rest---------------|----------rest---------------||
|-5-\--------------------------|-----------------------------||
|-3-\--------------------------|-----------------------------||
|------------------------------|-----------------------------||


Back to Chorus, Intro/Outro riff, End.
Добавлено: 26.03.2012
Другие материалы по этой песне:

Страница создана 26.03.2012
http://primanota.ru/lordi/raise-hell-in-heaven-chords.htm
Привет, Гость.
Предлагаем пройти революционный курс по гитаре.
Подарок от PrimaNota.Ru, забирай!