PrimaNota.ru - самый крупный в мире бесплатный архив песенных текстов, аккордов, табулатур и нот


Live - Hero of Love - аккорды и текст, таба, видео

Регистрация Запомнить меня
Войти через:  Facebook Google Twitter Vk Yandex Mail.ru

Live - Hero of Love - аккорды и текст, таба, видео

Печатать
Просмотров: 158
Hero of Love
Live
---------------------------------------------------------------------------
                             Hero Of Love - Live
---------------------------------------------------------------------------

Enjoy.

VERSE

e|---------------1------2--------|
B|--------2------1------4--------|
G|--------2------2------2--------|
D|--------2------3------4--------|
A|--------0------3------2--------|
E|---------------1---------------|


A          F           B7
I caught a glimpse of heaven last night to the
A            F           B7
left of your body to the right of your mind
A          F           B7
lost in a riddle I was helpless to understand
  A            F         B7
I went to a healer, the healer Held my hand

             G
she said... all of these things
     A
are written in the sand
Добавлено: 21.12.2013
Другие материалы по этой песне:
  • Аккорды и текст

Страница создана 10.04.2012
http://primanota.ru/live/hero-of-love-chords.htm
Привет, Гость.
Предлагаем пройти революционный курс по гитаре.
Подарок от PrimaNota.Ru, забирай!