PrimaNota.ru - самый крупный в мире бесплатный архив песенных текстов, аккордов, табулатур и нот


Live - Lakini's Juice - аккорды и текст, таба, бас-таба, видео

Регистрация Запомнить меня
Войти через:  Facebook Google Twitter Vk Yandex Mail.ru

Live - Lakini's Juice - аккорды и текст, таба, бас-таба, видео

Печатать
Просмотров: 131
Lakini's Juice
Live
		   Lakini's Juice

Live

"dropped D" tuning

verse

   D5 F#5       D5 F#5      D5 F#5      D5 F#5D5 D5(2)
e:-------x--x---------x--x--------x--x-------------|
b:-------x--x---------x--x--------x--x-------------|
g:-----------------------------------------------7-|
d:-0--4---------0--4--------0--4--------0--4--0--7-|
A:-0--4---------0--4--------0--4--------0--4--0--5-|
D:-0--4---------0--4--------0--4--------0--4--0----|

prechorus

   A     A#    C     A#
e:------------------------|
b:------------------------|
g:----6-----7-----9-----7-|
d:---7-----8-----10----8--|
A:--7-----8-----10----8---|
D:-7-----8-----10----8----|

chorus (the bass plays the high to low part, may be
        wrong chords all together)

   D5       D5 D#5
e:------------------------|
b:------------------------|
g:-7--7--7----------------|
d:-7--7--7--0--1--1--1--1-|
A:-5--5--5--0--1--1--1--1-|
D:----------0--1--1--1--1-|

interlude/chorus

   D           D#
e:-------2-----------3----|
b:----3-----------4-----4-|
g:-2--------2--3----------|
d:------------------------|
A:------------------------|
D:------------------------|

By Mike DuFrene
If something seems to be wrong E-mail: @Worldnet.att.netFrom fitzpatr@mb.sympatico.ca Fri Apr 18 10:52:27 1997

I would like to make a correction on this TAB:
Live-Lakini's Juice Correction
[{{{Live Lakini's Juice
Tuning (low to high)-C# G# C# F# A# D#
Basically tune the guitar down half a step
then tune to dropped-D (low E tuned down another
full step.)

Verse Riff: Distortion:
|-------------------------------|
|-------------------------------|
|-------------------------------|
|0-4-xxx-0-4-xxx-0-4-xxx-0-4-0-7|
|0-4-xxx-0-4-xxx-0-4-xxx-0-4-0-7|
|0-4-xxx-0-4-xxx-0-4-xxx-0-4-0-7|

The chorus is played a little different.
I'm not sure what the order is but he plays the
same 2 strings on the 8th fret, open, and on the 5th fret.}}}]

The First riff is played:
|-------------------------------|
|-------------------------------|
|-------------------------------|
|0-4--xx-0-4--xx-0-4--xx-0-4-0-7|
|0-4--xx-0-4--xx-0-4--xx-0-4-0-7|
|0-4--xx-0-4--xx-0-4--xx-0-4-0-7|

Every time I played it I would play it the
first way but then I heard it on the radio
again and they play it the second way.


Transcribed by Denis Hammerstedt
Tabbed by Neil Fitzpatrick
fitzpatr@mb.sympatico.ca

Please update the tablature.
From alambert@nr.infi.net Sun Apr 27 11:08:47 1997

This is the tab for Lakini's Juice, the first single from Live's Secret
Samadhi album. Words by Edward Kawalczik Music by Live.

Tuning: Open D Minor 1/2 step down (C#


"Lakini Juice" by Live
On the new album, Secret Samadhi

This is the main song from Live's latest album.  The album's really good,
but it's something that definitely grows on you as you listen to it.

Transcribed by spider@olemiss.edu

This one's a little different.  To the best of my knowledge, they
tune a 1 and 1/2 steps down to obtain that really deep sound, i.e.,

e -> db (c#)
B -> Ab (G#)
G -> Fb (E)
D -> Cb (B)
A -> Gb (F#)
E -> Db (C#)

So, in other words, an E5 is really a low C#5


Intro and Verses:
(using REALLY PHAT DISTORTION!!)

db:-------------------------------------------------------|-----
Ab:-------------------------------------------------------|-----
Fb:-------------------------------------------------------|-----
Cb:-----6------------6------------6-----------6-------1/2-|---6-
Gb:-----6--x-x-x-----6--x-x-x-----6-x-x-x-----6-x-x---/\--|---6-
Db:--0--4--x-x-x--0--4--x-x-x--0--4-x-x-x--0--4-x-x--7--7-|-0-4-								         \_/
									 pull off   (repeat...)


Refrain:
(using chorus, real light feel)

G#m (4th fret)	A(5th fret)
	slow...	down...
(C this back and forth)


Chorus:
(using that same distortion)

				Let me...
E(open chord)	C(3rd fret)
Ride!				Let me...
(C this back and forth)


The only other thing is at the very end, there's a riff which I
THINK is played by a guitar or possibly a keyboard, but I think it
goes somthing like this, but I'm not completely sure.

     E	     C
db:--------------------------|
Ab:--------------------------|
Fb:--------------------5-----|
Cb:--------2--------5-----5--|
Gb:-----2-----2--3-----------|
Db:--0-----------------------| (repeat)

	---OR---(it could be open picking, like this)

     E	     C
db:--------------------------|
Ab:--------------------------|
Fb:--------------------1-----|
Cb:--------2--------0-----0--|
Gb:-----2-----2--3-----------|
Db:--0-----------------------| (repeat)


And folks, that's pretty much it!
Piece it together and have fun!     
Добавлено: 16.06.2013
Другие материалы по этой песне:

Страница создана 27.03.2012
http://primanota.ru/live/lakinis-juice-chords.htm
Привет, Гость.
Предлагаем пройти революционный курс по гитаре.
Подарок от PrimaNota.Ru, забирай!