PrimaNota.ru - самый крупный в мире бесплатный архив песенных текстов, аккордов, табулатур и нот


Little May - Boardwalks - таба, видео

Регистрация Запомнить меня
Войти через:  Facebook Google Twitter Vk Yandex Mail.ru

Little May - Boardwalks - таба, видео

Печатать
Просмотров: 431
Hello there! This is one of my all time favorite songs, I couldn't find a tab or chords
for this song ANYWHERE! So I decided to just learn it by ear; and I figured that there
may be some of you out there who are in the same boat. (I apologize in advance for any 
errors, this is my first tab- so don't be too judgmental) I hope you enjoy! :)


Boardwalks- Little May


Standard Tuning; Capo 4

Intro:


x4

------------------2-|
-----------------3--|
--------------------|
-0-0-0-0-0-0-0-0-0--|
--------------------|
--------------------|

x8

-2-5-2-0-0-2-5-|
--------3------|
---------------|
---------------|
---------------|
---------------|

Verses:

x65 (With words)

-------|
--3--3-|
--2-2--|
-4-4---|
-------|
-------|

Somebody told me you were leaving town
Swear I never thought you'd be the one to bring me down
Fold this part, unfold this part
Stick it to the walls stick it to this one-way street
You can never run but you said you'd run with me
Hold this heart, hold this heart

Chorus:

(Acapella)

And I will not fall hard this time

x55 (With words)

-------|
--3--3-|
--2-2--|
-4-4---|
-------|
-------|

Cause' we are not afraid of who we are but of what we have become
And we are not afraid of what's to be when this road has just begun
So we will turn our backs and close the door the last time
Give me back what's mine
Give me back what's mine

Instrumental:

x3

-----------------|
-----------------|
-6-7-6-4-2-4-2-2-|
--------------4--|
-----------------|
-----------------|

x1

--------------------------------|
--------------------------------|
-6-7-6-4-2-4-2-2----------------|
--------------4-4-4-4-4-4-4-4-4-|
--------------------------------|
--------------------------------|

x18 (With words)

-----------------|
-----------------|
-6-7-6-4-2-4-2-2-|
--------------4--|
-----------------|
-----------------|

ooh ooh ooh ooh ooh ooh (x6)


So we will turn our backs and close the door the last time
Give me back what's mine
Give me back what's mine





I hope you liked it! :)

http://www.littlemaymusic.com/
Добавлено: 17.12.2013
Другие материалы по этой песне:
  • Аккорды и текст

Страница создана 17.12.2013
http://primanota.ru/little-may/boardwalks-chords.htm
Привет, Гость.
Предлагаем пройти революционный курс по гитаре.
Подарок от PrimaNota.Ru, забирай!