PrimaNota.ru - самый крупный в мире бесплатный архив песенных текстов, аккордов, табулатур и нот


Lisa Stansfield - This Is The Right Time - текст песни, бас-таба, видео

Регистрация Запомнить меня
Войти через:  Facebook Google Twitter Vk Yandex Mail.ru

Lisa Stansfield - This Is The Right Time - текст песни, бас-таба, видео

Печатать
Просмотров: 84
Уроки эстрадного вокала в Санкт-Петербурге
-------------------------------------------------------------------------------
                             This Is The Right Time - Lisa Stansfield
-------------------------------------------------------------------------------
Tabbed by: Muser00
Tuning: Standard

Intro/Verse/Chorus

G|-------------------------------------|
D|-------------------------------------|
A|-1-------1-1-------1-------1-1-----4-|
E|---1-4-1-----1-4-1---1-4-1-----1-4---|

Pre-Chorus

G|-------------------------------------|
D|-------------------------------------|
A|-1-------1-1-------1-------1-1-----4-|
E|---1-4-1-----1-4-1---1-4-1-----1-4---|

G|-------------------------------------|
D|-------------------------------------|
A|-1-------1-1-------1-------1-1-----4-|
E|---1-4-1-----1-4-1---1-4-1-----1-4---|

G|-------------------------------------|
D|-------------------------------------|
A|-------------------------------------|
E|-3~----------------------------------|

100% Sure about the tab! It's a very good bass line! Have fun!

| /  slide up
| \  slide down
| h  hammer-on
| p  pull-off
| ~  let ring
| +  harmonic
| x  Mute note
===============================================================================
Добавлено: 25.06.2016
Вам также может быть интересно:
Другие материалы по этой песне:
  • Аккорды и текст

Страница создана 20.07.2012
http://primanota.ru/lisa-stansfield/this-is-the-right-time-chords.htm
Привет, Гость.
Предлагаем пройти революционный курс по гитаре.
Подарок от PrimaNota.Ru, забирай!