PrimaNota.ru - самый крупный в мире бесплатный архив песенных текстов, аккордов, табулатур и нот


Linkin Park - Pepper - таба, видео

Регистрация Запомнить меня
Войти через:  Facebook Google Twitter Vk Yandex Mail.ru

Linkin Park - Pepper - таба, видео

Печатать
Просмотров: 400
Уроки эстрадного вокала в Санкт-Петербурге
PEPPER (Meteora Demo) - Linkin Park

Tabbed by Mirk121

Tuning:
Db, Ab, Db, Gb, Bb, Eb

Guitar 1 (Clean w/ delay & reverb)
Guitar 2 (Distorted)
Guitar 3 (Distorted)

Intro1:

Guitar 1
Eb|---------8------------------7------------|
Bd|----10-------10---10---10-------10---10--|
Gb|--9----9--------9----9----9--------9-----|
Db|-----------------------------------------|
Ab|-----------------------------------------|
Db|-----------------------------------------|

Intro2

Guitar 1
Eb|---------8------------------10-----------|
Bd|----10-------10---10---10-------10---10--|
Gd|--9----9--------9----9----9--------9-----|
Db|-----------------------------------------|
Ab|-----------------------------------------|
Db|-----------------------------------------|

Chorus:

Guitar 2 & 3
Eb|----------------------------------------------|
Bd|----------------------------------------------|
Gb|----------------------------------------------|
Db|--7--7-7----10--10-10----9--9-9----5--5-5-----|
Ab|--7--7-7----10--10-10----5--5-5----3--3-3-----|
Db|--7--7-7----10--10-10----5--5-5----3--3-3-----|

Bridge:

Guitar 2 & 3
Eb|--------------------------------------------------|
Bd|--------------------------------------------------|
Gb|--------------------------------------------------|
Db|--0~---------5~-----------7~----------9~----------|
Ab|--0~---------3~-----------7~----------5~----------|
Db|--0~---------3~-----------7~----------5~----------|


Let's play:

Intro1 x 8

Intro2 x 1

Intro1 x 1

Intro2 x 1

Intro1 x 1

Chorus x 2

Intro1 x 4

Intro2 x 1

Intro1 x 1

Intro2 x 1

Intro1 x 1

Chorus x 2

Bridge x 2

Chorus x 2
Добавлено: 07.06.2013
Другие материалы по этой песне:
  • Аккорды и текст

Страница создана 07.06.2013
http://primanota.ru/linkin-park/pepper-chords.htm
Привет, Гость.
Предлагаем пройти революционный курс по гитаре.
Подарок от PrimaNota.Ru, забирай!