PrimaNota.ru - самый крупный в мире бесплатный архив песенных текстов, аккордов, табулатур и нот


Linkin Park - Soundtrack - таба, видео

Регистрация Запомнить меня
Войти через:  Facebook Google Twitter Vk Yandex Mail.ru

Linkin Park - Soundtrack - таба, видео

Печатать
Просмотров: 210
Made a typo on first submission. Meant to say tuning is Drop C#, not Drop C.

Soundtrack (Meteora Demo)


Tuning: Drop C# (Drop D 1/2 step down)


Just listen to the song for where to play each part; it's pretty simple.


Intro/Verse/End (Guitar 1)

 

E ---------------------------------------------|
A ---------------------------------------------|
D ---------------------------------------------|
G ---2-------2---------------------------------|
B ------1----------(1)----(1)------------------|
E ---------3----3------3-----------------------|

 

Intro/Verse (Guitar 2)

 

E ---------------------------------------------------------|
A -------------------------------------=-------------------|
D -------------------------------3--3--3--3--3--3--3--3----|
G ---2--2--2--2--2--2--2--2--------------------------------|
B ---------------------------------------------------------|
E ---------------------------------------------------------|

 

Verse Piano (Guitar 2) (Can be played on the frets themselves rather than between them)

 

E -----------------------------------------------|
A -----------------------------------------------|
D -----------------------------------------------|
G -----------------------------------------------|
B -----------------------------------------------|
E --7~-------8~-------10~-------8~---------------|

 

Bridge Piano (Guitar 2)

 

E -------------------------------------------|
A -------------------------------------------|
D -------------------------------------------|
G -------------------------------------------|
B -------------------------------------------|
E --5--7--8--10--12--5--7--8-----------------|

 

 


Chorus (Guitar 1)

 

E ----7--7--7--7--7--7--7--7--|--3--3--3--3--3--3--3--3--|
A ----7--7--7--7--7--7--7--7--|--3--3--3--3--3--3--3--3--|
D ----7--7--7--7--7--7--7--7--|--3--3--3--3--3--3--3--3--|
G ----9--9---------9--9-------|--5--5--------5--5--------|
B -----------------------------|-------------------------|
E -----------------------------|-------------------------|

 

Bridge/End Chorus (Guitar 1)

 

E ----5--5--5--5--5--5--5--5--|--3--3--3--3--3--3--3--3--|
A ----5--5--5--5--5--5--5--5--|--3--3--3--3--3--3--3--3--|
D ----5--5--5--5--5--5--5--5--|--3--3--3--3--3--3--3--3--|
G ----7--7--------------------|--5--5--------5--5--------|
B ----------------------------|--------------------------|
E ----------------------------|--------------------------|
Добавлено: 25.07.2013
Другие материалы по этой песне:
  • Аккорды и текст

Страница создана 25.07.2013
http://primanota.ru/linkin-park/soundtrack-chords.htm
Привет, Гость.
Предлагаем пройти революционный курс по гитаре.
Подарок от PrimaNota.Ru, забирай!