PrimaNota.ru - самый крупный в мире бесплатный архив песенных текстов, аккордов, табулатур и нот


Linkin Park - Lockjaw - таба, видео

Регистрация Запомнить меня
Войти через:  Facebook Google Twitter Vk Yandex Mail.ru

Linkin Park - Lockjaw - таба, видео

Печатать
Просмотров: 253
Linkin Park - Lockjaw(2008)

Mike Shinoda and Rob Bourdon created a small demo song.
Mike said ,They want more instrumental songs in their new album.

Tab:

Guitar 1- D A D G B E (Slightly distorted w/chorus, delay, and reverb)(plays in background)

Guitar 2 - D A D G B E (Clean w/chorus and reverb)

Intro - Guitar 2 (0:18)(0:28)(0:38) (background)
|-------------------------------------------|
|-------15----12*~--------------------------|
|----14-------------------------------------|
|-14----------------------------------------|
|-------------------------------------------|
|-------------------------------------------|

Chorus - Guitar 1 (0:52-1:13)

|----------------------------------------------------------------------|
|----------------------------------------------------------------------|
|-9---9---9---9---9---12---12---11h12-11---7---7-----------------------|
|--------------------------------------------------7---7---7---7---7---|
|----------------------------------------------------------------------|
|----------------------------------------------------------------------|


(Guitar 2) (1:22) (background)
|----------------------------------------------------------------------|
|-------15----12*~-----------------------------------------------------|
|----14----------------------------------------------------------------|
|-14-------------------------------------------------------------------|
|----------------------------------------------------------------------|
|----------------------------------------------------------------------|


Chorus+Bridge Guitar 1 (1:35-End)

|----------------------------------------------------------------------|
|----------------------------------------------------------------------|
|-9---9---9---9---9---12---12---11h12-11---7---7-----------------------|
|--------------------------------------------------7---7---7---7---7---|
|----------------------------------------------------------------------|
|----------------------------------------------------------------------|



Добавлено: 26.05.2012
Другие материалы по этой песне:

Страница создана 02.03.2012
http://primanota.ru/linkin-park/lockjaw-chords.htm
Привет, Гость.
Предлагаем пройти революционный курс по гитаре.
Подарок от PrimaNota.Ru, забирай!