PrimaNota.ru - самый крупный в мире бесплатный архив песенных текстов, аккордов, табулатур и нот


Linkin Park - No More Sorrow Live - таба, видео

Регистрация Запомнить меня
Войти через:  Facebook Google Twitter Vk Yandex Mail.ru

Linkin Park - No More Sorrow Live - таба, видео

Печатать
Просмотров: 423
Уроки эстрадного вокала в Санкт-Петербурге
Guitar 1 - C# G# C# F# A# D# (Brad Delson)
Guitar 2 - C# G# C# F# A# D# (Mike Shinoda)
Guitar 3 - C# G# C# F# A# D# (Samples)

I'll go through this steadily. This song is simply amazing live. This is kind of a
between LP's live version and my live version. First off, tuning. Half step, drop D. You
HAVE to do this for guitar 3 - you can use drop D or Eb for that - but for the sake of
things simple they're all the same. All guitars use heavy distortion. Guitar 1 should
be sllightly louder than guitar 2, and guitar 3 is a lot quieter than guitar 2. Brad
uses E-bow. Guitar 1 handles lead, guitar 2 takes rhythm, and guitar 3 is backup. Now,
3 is sampled. There is no question. But if you're in a band and have a lead singer who 
he can play the guitar, give him the job of guitar 3. Otherwise, samples
the way.

Btw, chorus is 10's. Not 1's and 0's. That's just ridiculous.

-Intro 1-

Guitar 2
|----------------------------------------------|
|----------------------------------------------|
|-9--------11--------9--------11---------------|
|-x--------x---------x--------x----------------|
|-7-(x7)---9--(x7)---7-(x7)---9--(x7)----------|
|----------------------------------------------|


Guitar 2
|--------------------------------------------------|
|--------------------------------------------------|
|-12--------11--------12--------11------x--11------|
|-x---------x---------x---------x-------x--x-------|
|-10-(x7)---9--(x7)---10-(x7)---9--(x7)-x--9--(x7)-|
|--------------------------------------------------|

Guitar 3
|---------------------------------------------------------------------------------------------|
|---------------------------------------------------------------------------------------------|
|---------------------------------------------------------------------------------------------|
|-xxxxxxx-xxxx-xxxxxxxxxxxxxxxx-xxxx-xxxxxxxxxxxxxxxx-xxxx-xxxxxxxxxxxxxxxx-xxxx-xxxxxxxxx----|
|-xxxxxxx-xxxx-xxxxxxxxxxxxxxxx-xxxx-xxxxxxxxxxxxxxxx-xxxx-xxxxxxxxxxxxxxxx-xxxx-xxxxxxxxx----|
|-xxxxxxx-xxxx-xxxxxxxxxxxxxxxx-xxxx-xxxxxxxxxxxxxxxx-xxxx-xxxxxxxxxxxxxxxx-xxxx-xxxxxxxxx----|


Guitar 2
|------------------------------------------------------------------------|
|------------------------------------------------------------------------|
|-14---------12---------9---------14---------12---------9----------------|
|-x----------x----------x---------x----------x----------x----------------|
|-12-(x12)---10-(x12)---7-(x24)---12-(x12)---10-(x12)---7-(x24)----------|
|------------------------------------------------------------------------|

Guitar 3
|---------------------------------------------------------------------------------------------|
|---------------------------------------------------------------------------------------------|
|---------------------------------------------------------------------------------------------|
|-xxxxxxx-xxxx-xxxxxxxxxxxxxxxx-xxxx-xxxxxxxxxxxxxxxx-xxxx-xxxxxxxxxxxxxxxx-xxxx-xxxxxxxxx----|
|-xxxxxxx-xxxx-xxxxxxxxxxxxxxxx-xxxx-xxxxxxxxxxxxxxxx-xxxx-xxxxxxxxxxxxxxxx-xxxx-xxxxxxxxx----|
|-xxxxxxx-xxxx-xxxxxxxxxxxxxxxx-xxxx-xxxxxxxxxxxxxxxx-xxxx-xxxxxxxxxxxxxxxx-xxxx-xxxxxxxxx----|

-Intro 2-

Guitar 2
|---------------------------------------------------------------------------------------------|
|---------------------------------------------------------------------------------------------|
|---------------------------------------------------------------------------------------------|
|-2222222---------------2222222---------------2222222---------------2222222-------------------|
|-2222222---------------2222222---------------2222222---------------2222222-------------------|
|-2222222---------------2222222---------------2222222---------------2222222-------------------|

Guitar 3
|---------------------------------------------------------------------------------------------|
|---------------------------------------------------------------------------------------------|
|---------------------------------------------------------------------------------------------|
|-xxxxxxx-xxxx-xxxxxxxxxxxxxxxx-xxxx-xxxxxxxxxxxxxxxx-xxxx-xxxxxxxxxxxxxxxx-xxxx-xxxxxxxxx----|
|-xxxxxxx-xxxx-xxxxxxxxxxxxxxxx-xxxx-xxxxxxxxxxxxxxxx-xxxx-xxxxxxxxxxxxxxxx-xxxx-xxxxxxxxx----|
|-xxxxxxx-xxxx-xxxxxxxxxxxxxxxx-xxxx-xxxxxxxxxxxxxxxx-xxxx-xxxxxxxxxxxxxxxx-xxxx-xxxxxxxxx----|

-Intro 2 (Part 2)-

Guitar 1
|-0~~~~~~~2~3~~~~~7~~~~~5~~~~~~~7~8~~~~~7~~~~~0~~~~~~~2~3~~~~~7~~~~~5~~~~~~~7~8~~~~~7~~~~~----|
|---------------------------------------------------------------------------------------------|
|---------------------------------------------------------------------------------------------|
|---------------------------------------------------------------------------------------------|
|---------------------------------------------------------------------------------------------|
|---------------------------------------------------------------------------------------------|

Guitar 2
|---------------------------------------------------------------------------------------------|
|---------------------------------------------------------------------------------------------|
|---------------------------------------------------------------------------------------------|
|-2222222---------------2222222---------------2222222---------------2222222-------------------|
|-2222222---------------2222222---------------2222222---------------2222222-------------------|
|-2222222---------------2222222---------------2222222---------------2222222-------------------|

Guitar 3
|---------------------------------------------------------------------------------------------|
|---------------------------------------------------------------------------------------------|
|---------------------------------------------------------------------------------------------|
|-xxxxxxx-xxxx-xxxxxxxxxxxxxxxx-xxxx-xxxxxxxxxxxxxxxx-xxxx-xxxxxxxxxxxxxxxx-xxxx-xxxxxxxxx----|
|-xxxxxxx-xxxx-xxxxxxxxxxxxxxxx-xxxx-xxxxxxxxxxxxxxxx-xxxx-xxxxxxxxxxxxxxxx-xxxx-xxxxxxxxx----|
|-xxxxxxx-xxxx-xxxxxxxxxxxxxxxx-xxxx-xxxxxxxxxxxxxxxx-xxxx-xxxxxxxxxxxxxxxx-xxxx-xxxxxxxxx----|

-Intro 2 (Part 3)-

Guitar 1
|-0~~~~~~~2~3~~~~~7~~~~~5~~~~~~~7~8~~~~~7~~~~~0~~~~~~~2~3~~~~~7~~~~~5~~~~~~~7~8~~~~~7~~~~~----|
|---------------------------------------------------------------------------------------------|
|---------------------------------------------------------------------------------------------|
|---------------------------------------------------------------------------------------------|
|---------------------------------------------------------------------------------------------|
|---------------------------------------------------------------------------------------------|

Guitar 2
|---------------------------------------------------------------------------------------------|
|---------------------------------------------------------------------------------------------|
|---------------------------------------------------------------------------------------------|
|-2222222-xxxx-xxxxxxxxx2222222-xxxx-xxxxxxxxx2222222-xxxx-xxxxxxxxx2222222-xxxx-xxxxxxxxx----|
|-2222222-xxxx-xxxxxxxxx2222222-xxxx-xxxxxxxxx2222222-xxxx-xxxxxxxxx2222222-xxxx-xxxxxxxxx----|
|-2222222-xxxx-xxxxxxxxx2222222-xxxx-xxxxxxxxx2222222-xxxx-xxxxxxxxx2222222-xxxx-xxxxxxxxx----|

Guitar 3
|---------------------------------------------------------------------------------------------|
|---------------------------------------------------------------------------------------------|
|---------------------------------------------------------------------------------------------|
|-xxxxxxx-xxxx-xxxxxxxxxxxxxxxx-xxxx-xxxxxxxxxxxxxxxx-xxxx-xxxxxxxxxxxxxxxx-xxxx-xxxxxxxxx----|
|-xxxxxxx-xxxx-xxxxxxxxxxxxxxxx-xxxx-xxxxxxxxxxxxxxxx-xxxx-xxxxxxxxxxxxxxxx-xxxx-xxxxxxxxx----|
|-xxxxxxx-xxxx-xxxxxxxxxxxxxxxx-xxxx-xxxxxxxxxxxxxxxx-xxxx-xxxxxxxxxxxxxxxx-xxxx-xxxxxxxxx----|

-Chorus-

Guitar 1, 2 and 3
|-----------------------------------------------------------------|
|-----------------------------------------------------------------|
|-----------------------------------------------------------------|
|-101010101010999999222222222222101010101010999999222222222222----|
|-101010101010999999222222222222101010101010999999222222222222----|
|-101010101010999999222222222222101010101010999999222222222222----|

Guitar 1, 2 and 3
|-----------------------------------------------------------|
|-----------------------------------------------------------|
|-----------------------------------------------------------|
|-101010101010999999222222222222555555555555999999111111----|
|-101010101010999999222222222222555555555555999999111111----|
|-101010101010999999222222222222555555555555999999111111----|

-Post Chorus-

Guitar 1 and 2
|--------------------------------------------------|
|--------------------------------------------------|
|--------------------------------------------------|
|-2222222-2222-2222222222222222-2222-222222222-----|
|-2222222-2222-2222222222222222-2222-222222222-----|
|-2222222-2222-2222222222222222-2222-222222222-----|

Guitar 3
|--------------------------------------------------|
|--------------------------------------------------|
|--------------------------------------------------|
|-xxxxxxx-xxxx-xxxxxxxxxxxxxxxx-xxxx-xxxxxxxxx-----|
|-xxxxxxx-xxxx-xxxxxxxxxxxxxxxx-xxxx-xxxxxxxxx-----|
|-xxxxxxx-xxxx-xxxxxxxxxxxxxxxx-xxxx-xxxxxxxxx-----|

-Verse-

Guitar 1
|-0~~~~~~~2~3~~~~~7~~~~~5~~~~~~~7~8~~~~~7~~~~~0~~~~~~~2~3~~~~~7~~~~~5~~~~~~~7~8~~~~~7~~~~~----|
|---------------------------------------------------------------------------------------------|
|---------------------------------------------------------------------------------------------|
|---------------------------------------------------------------------------------------------|
|---------------------------------------------------------------------------------------------|
|---------------------------------------------------------------------------------------------|

Guitar 2
|---------------------------------------------------------------------------------------------|
|---------------------------------------------------------------------------------------------|
|---------------------------------------------------------------------------------------------|
|-xxxxxxx-xxxx-xxxxxxxxxxxxxxxx-xxxx-xxxxxxxxxxxxxxxx-xxxx-xxxxxxxxxxxxxxxx-xxxx-xxxxxxxxx----|
|-xxxxxxx-xxxx-xxxxxxxxxxxxxxxx-xxxx-xxxxxxxxxxxxxxxx-xxxx-xxxxxxxxxxxxxxxx-xxxx-xxxxxxxxx----|
|-xxxxxxx-xxxx-xxxxxxxxxxxxxxxx-xxxx-xxxxxxxxxxxxxxxx-xxxx-xxxxxxxxxxxxxxxx-xxxx-xxxxxxxxx----|

Guitar 3
|---------------------------------------------------------------------------------------------|
|---------------------------------------------------------------------------------------------|
|---------------------------------------------------------------------------------------------|
|---------------------------------------------------------------------------------------------|
|-2222222-2222-2222222222222222-2222-2222222222222222-2222-2222222222222222-2222-222222222----|
|-2222222-2222-2222222222222222-2222-2222222222222222-2222-2222222222222222-2222-222222222----|
  ....... .... ................ .... ................ .... ................ .... .........

-Pre Chorus-

Guitar 1 and 2
|---------------------------------------------|
|---------------------------------------------|
|---------------------------------------------|
|-2222222-2222-2222222222222222-2222-2222-----|
|-2222222-2222-2222222222222222-2222-2222-----|
|-2222222-2222-2222222222222222-2222-2222-----|

Guitar 3
|---------------------------------------------|
|---------------------------------------------|
|---------------------------------------------|
|---------------------------------------------|
|-2222222-2222-2222222222222222-2222-2222-----|
|-2222222-2222-2222222222222222-2222-2222-----|
  ....... .... ................ .... ....

-Chorus-

Guitar 1
|-----------------------------------------------------|
|-----------------------------------------------------|
|-555555444444------------555555444444----------------|
|-555555444444222222222222555555444444222222222222----|
|-333333222222222222222222333333222222222222222222----|
|-------------222222222222------------222222222222----|

Guitar 2
|-----------------------------------------------------------------|
|-----------------------------------------------------------------|
|-----------------------------------------------------------------|
|-101010101010999999222222222222101010101010999999222222222222----|
|-101010101010999999222222222222101010101010999999222222222222----|
|-101010101010999999222222222222101010101010999999222222222222----|


Guitar 1
|-----------------------------------------------------|
|-----------------------------------------------------|
|-555555444444----------------------------------------|
|-555555444444222222222222555555555555999999111111----|
|-333333222222222222222222555555555555999999111111----|
|-------------222222222222555555555555999999111111----|

Guitar 2
|-----------------------------------------------------------|
|-----------------------------------------------------------|
|-----------------------------------------------------------|
|-101010101010999999222222222222555555555555999999111111----|
|-101010101010999999222222222222555555555555999999111111----|
|-101010101010999999222222222222555555555555999999111111----|

-Post Chorus-

Guitar 1 and 2
|--------------------------------------------------|
|--------------------------------------------------|
|--------------------------------------------------|
|-2222222-2222-2222222222222222-2222-222222222-----|
|-2222222-2222-2222222222222222-2222-222222222-----|
|-2222222-2222-2222222222222222-2222-222222222-----|

Guitar 3
|--------------------------------------------------|
|--------------------------------------------------|
|--------------------------------------------------|
|-xxxxxxx-xxxx-xxxxxxxxxxxxxxxx-xxxx-xxxxxxxxx-----|
|-xxxxxxx-xxxx-xxxxxxxxxxxxxxxx-xxxx-xxxxxxxxx-----|
|-xxxxxxx-xxxx-xxxxxxxxxxxxxxxx-xxxx-xxxxxxxxx-----|

-Verse-

Guitar 1
|-0~~~~~~~2~3~~~~~7~~~~~5~~~~~~~7~8~~~~~7~~~~~0~~~~~~~2~3~~~~~7~~~~~5~~~~~~~7~8~~~~~7~~~~~----|
|---------------------------------------------------------------------------------------------|
|---------------------------------------------------------------------------------------------|
|---------------------------------------------------------------------------------------------|
|---------------------------------------------------------------------------------------------|
|---------------------------------------------------------------------------------------------|

Guitar 2
|---------------------------------------------------------------------------------------------|
|---------------------------------------------------------------------------------------------|
|---------------------------------------------------------------------------------------------|
|-xxxxxxx-xxxx-xxxxxxxxxxxxxxxx-xxxx-xxxxxxxxxxxxxxxx-xxxx-xxxxxxxxxxxxxxxx-xxxx-xxxxxxxxx----|
|-xxxxxxx-xxxx-xxxxxxxxxxxxxxxx-xxxx-xxxxxxxxxxxxxxxx-xxxx-xxxxxxxxxxxxxxxx-xxxx-xxxxxxxxx----|
|-xxxxxxx-xxxx-xxxxxxxxxxxxxxxx-xxxx-xxxxxxxxxxxxxxxx-xxxx-xxxxxxxxxxxxxxxx-xxxx-xxxxxxxxx----|

Guitar 3
|---------------------------------------------------------------------------------------------|
|---------------------------------------------------------------------------------------------|
|---------------------------------------------------------------------------------------------|
|---------------------------------------------------------------------------------------------|
|-2222222-2222-2222222222222222-2222-2222222222222222-2222-2222222222222222-2222-222222222----|
|-2222222-2222-2222222222222222-2222-2222222222222222-2222-2222222222222222-2222-222222222----|
  ....... .... ................ .... ................ .... ................ .... .........

-Pre Chorus-

Guitar 1 and 2
|---------------------------------------------|
|---------------------------------------------|
|---------------------------------------------|
|-2222222-2222-2222222222222222-2222-2222-x---|
|-2222222-2222-2222222222222222-2222-2222-x---|
|-2222222-2222-2222222222222222-2222-2222-x---|

Guitar 3
|---------------------------------------------|
|---------------------------------------------|
|---------------------------------------------|
|---------------------------------------------|
|-2222222-2222-2222222222222222-2222-2222-----|
|-2222222-2222-2222222222222222-2222-2222-----|
  ....... .... ................ .... ....

-Chorus-

Guitar 1
|-----------------------------------------------------|
|-----------------------------------------------------|
|-555555444444------------555555444444----------------|
|-555555444444222222222222555555444444222222222222----|
|-333333222222222222222222333333222222222222222222----|
|-------------222222222222------------222222222222----|

Guitar 2
|-----------------------------------------------------------------|
|-----------------------------------------------------------------|
|-----------------------------------------------------------------|
|-101010101010999999222222222222101010101010999999222222222222----|
|-101010101010999999222222222222101010101010999999222222222222----|
|-101010101010999999222222222222101010101010999999222222222222----|


Guitar 1
|-----------------------------------------------------|
|-----------------------------------------------------|
|-555555444444----------------------------------------|
|-555555444444222222222222555555555555999999111111----|
|-333333222222222222222222555555555555999999111111----|
|-------------222222222222555555555555999999111111----|

Guitar 2
|-----------------------------------------------------------|
|-----------------------------------------------------------|
|-----------------------------------------------------------|
|-101010101010999999222222222222555555555555999999111111----|
|-101010101010999999222222222222555555555555999999111111----|
|-101010101010999999222222222222555555555555999999111111----|

-Bridge-

Guitar 1 and 2
|-----------------------------------------------------|
|-----------------------------------------------------|
|-----------------------------------------------------|
|-0~~1~~0~~4~~3~~0~~1~~6~~0~~1~~0~~4~~3~~0~~1~~6~~----|
|-0~~1~~0~~4~~3~~0~~1~~6~~0~~1~~0~~4~~3~~0~~1~~6~~----|
|-0~~1~~0~~4~~3~~0~~1~~6~~0~~1~~0~~4~~3~~0~~1~~6~~----|

Guitar 3
|-------------------------------------------------|
|-------------------------------------------------|
|-------------------------------------------------|
|-xxxxxxx--xxxxxxx--xxxxxxx--xxxxxxx--xxxxxxx-----|
|-xxxxxxx--xxxxxxx--xxxxxxx--xxxxxxx--xxxxxxx-----|
|-xxxxxxx--xxxxxxx--xxxxxxx--xxxxxxx--xxxxxxx-----|


Guitar 1 and 2
|-----------------------------------------------------|
|-----------------------------------------------------|
|-----------------------------------------------------|
|-0~~1~~0~~4~~3~~0~~1~~6~~0~~1~~0~~4~~3~~0~~1~~6~~----|
|-0~~1~~0~~4~~3~~0~~1~~6~~0~~1~~0~~4~~3~~0~~1~~6~~----|
|-0~~1~~0~~4~~3~~0~~1~~6~~0~~1~~0~~4~~3~~0~~1~~6~~----|

Guitar 3
|---------------------------------------------------|
|---------------------------------------------------|
|---------------------------------------------------|
|-xxxxxxx-----xxxxxxx-----xxxxxxx-----xxxxxxx-------|
|-xxxxxxx-----xxxxxxx-----xxxxxxx-----xxxxxxx-------|
|-xxxxxxx-----xxxxxxx-----xxxxxxx-----xxxxxxx-------|


Guitar 1 and 2
|-----------------------------|
|-----------------------------|
|-----------------------------|
|-0~~1~~0~~4~~3~~0~~1~~3~~----|
|-0~~1~~0~~4~~3~~0~~1~~3~~----|
|-0~~1~~0~~4~~3~~0~~1~~3~~----|

Guitar 3
|-----------------------------|
|-----------------------------|
|-----------------------------|
|-xxxxxxx-----xxxxxxx---------|
|-xxxxxxx-----xxxxxxx---------|
|-xxxxxxx-----xxxxxxx---------|

-Interlude-

Guitar 1
|-0~~~~~~~2~3~~~~~7~~~~~5~~~~~~~7~8~~~~~7~~~~~0~~~~~~~2~3~~~~~7~~~~~5~~~~~~~7~8~~~~~7~~~~~----|
|---------------------------------------------------------------------------------------------|
|---------------------------------------------------------------------------------------------|
|---------------------------------------------------------------------------------------------|
|---------------------------------------------------------------------------------------------|
|---------------------------------------------------------------------------------------------|

Guitar 2
|---------------------------------------------------------------------------------------------|
|---------------------------------------------------------------------------------------------|
|---------------------------------------------------------------------------------------------|
|-2222222---------------2222222---------------2222222---------------2222222-------------------|
|-2222222---------------2222222---------------2222222---------------2222222-------------------|
|-2222222---------------2222222---------------2222222---------------2222222-------------------|

Guitar 1
|-0~~~~~~~2~3~~~~~7~~~~~5~~~~~~~7~8~~~~~7~~~~~|
|---------------------------------------------|
|---------------------------------------------|
|---------------------------------------------|
|---------------------------------------------|
|---------------------------------------------|

Guitar 2
|---------------------------------------------|
|---------------------------------------------|
|---------------------------------------------|
|-2222222---------------2222222-------------x-|
|-2222222---------------2222222-------------x-|
|-2222222---------------2222222-------------x-|

-Chorus-

Guitar 1
|-----------------------------------------------------|
|-----------------------------------------------------|
|-555555444444------------555555444444----------------|
|-555555444444222222222222555555444444222222222222----|
|-333333222222222222222222333333222222222222222222----|
|-------------222222222222------------222222222222----|

Guitar 2
|-----------------------------------------------------------------|
|-----------------------------------------------------------------|
|-----------------------------------------------------------------|
|-101010101010999999222222222222101010101010999999222222222222----|
|-101010101010999999222222222222101010101010999999222222222222----|
|-101010101010999999222222222222101010101010999999222222222222----|


Guitar 1
|-----------------------------------------------------|
|-----------------------------------------------------|
|-555555444444----------------------------------------|
|-555555444444222222222222555555555555999999999999----|
|-333333222222222222222222555555555555999999999999----|
|-------------222222222222555555555555999999999999----|

Guitar 2
|-----------------------------------------------------------|
|-----------------------------------------------------------|
|-----------------------------------------------------------|
|-101010101010999999222222222222555555555555999999999999----|
|-101010101010999999222222222222555555555555999999999999----|
|-101010101010999999222222222222555555555555999999999999----|


Guitar 1
|-----------------------------------------------------|
|-----------------------------------------------------|
|-555555444444------------555555444444----------------|
|-555555444444222222222222555555444444222222222222----|
|-333333222222222222222222333333222222222222222222----|
|-------------222222222222------------222222222222----|

Guitar 2
|-----------------------------------------------------------------|
|-----------------------------------------------------------------|
|-----------------------------------------------------------------|
|-101010101010999999222222222222101010101010999999222222222222----|
|-101010101010999999222222222222101010101010999999222222222222----|
|-101010101010999999222222222222101010101010999999222222222222----|


Guitar 1
|-----------------------------------------------------|
|-----------------------------------------------------|
|-555555444444----------------------------------------|
|-555555444444222222222222555555555555999999111111----|
|-333333222222222222222222555555555555999999111111----|
|-------------222222222222555555555555999999111111----|

Guitar 2
|-----------------------------------------------------------|
|-----------------------------------------------------------|
|-----------------------------------------------------------|
|-101010101010999999222222222222555555555555999999111111----|
|-101010101010999999222222222222555555555555999999111111----|
|-101010101010999999222222222222555555555555999999111111----|

-Outro-

Guitar 1
|-0~~~~~~~2~3~~~~~7~~~~~5~~~~~~~7~8~~~~~7~~~~~0~~~~~~~2~3~~~~~7~~~~~5~~~~~~~7~8~~~~~7~~~~~----|
|---------------------------------------------------------------------------------------------|
|---------------------------------------------------------------------------------------------|
|---------------------------------------------------------------------------------------------|
|---------------------------------------------------------------------------------------------|
|---------------------------------------------------------------------------------------------|

Guitar 2
|---------------------------------------------|
|---------------------------------------------|
|---------------------------------------------|
|-2222222-2222-2222222222222222-2222-2222-----|
|-2222222-2222-2222222222222222-2222-2222-----|
|-2222222-2222-2222222222222222-2222-2222-----|

Guitar 3
|---------------------------------------------|
|---------------------------------------------|
|---------------------------------------------|
|-xxxxxxx-xxxx-xxxxxxxxxxxxxxxx-xxxx-xxxx-----|
|-xxxxxxx-xxxx-xxxxxxxxxxxxxxxx-xxxx-xxxx-----|
|-xxxxxxx-xxxx-xxxxxxxxxxxxxxxx-xxxx-xxxx-----|
Добавлено: 20.07.2012
Другие материалы по этой песне:

Страница создана 15.07.2012
http://primanota.ru/linkin-park/no-more-sorrow-live-chords.htm
Привет, Гость.
Предлагаем пройти революционный курс по гитаре.
Подарок от PrimaNota.Ru, забирай!