PrimaNota.ru - самый крупный в мире бесплатный архив песенных текстов, аккордов, табулатур и нот


Linkin Park - Little Boxes - текст песни, таба, видео

Регистрация Запомнить меня
Войти через:  Facebook Google Twitter Vk Yandex Mail.ru

Linkin Park - Little Boxes - текст песни, таба, видео

Печатать
Просмотров: 334
Уроки эстрадного вокала в Санкт-Петербурге
This is Linkin Park's version of the song You can hear it on youtube. 

Intro:

Guitar: 

e|-----------------------------------------------------|
B|--10---------10----------10-----------8--------------|
G|-----10----------10----------10----------10----------|
D|---------10----------10----------10------------------|
A|-----------------------------------------------------|
E|-----------------------------------------------------|


Bass:

E|----------------|
e|----------------|
B|----------------|
G|----------------|
D|----------------|
A|--------3-------|
E|-1-1-1----------|



Verses:

Guitar:

e|------------------------------------------------------------------------------|
B|--10-------10----------10----------10----------10--------11------10-------8---|
G|-----10--------10----------10---------10----------10--------10------10--------|
D|---------10--------10----------10---------10---------10--------10------10---10|
A|------------------------------------------------------------------------------|
E|------------------------------------------------------------------------------|

Bass:

e|----------------------------------------------------|
B|----------------------------------------------------|
G|----------------------------------------------------|
D|----------------------------------------------------|
A|--------5-5--1-1--3-3-------5-5--1-1--3-----3-------|
E|--1-1------------------1-1---------------1----------|



Piano (2nd verse)

e|-15--13------15-13------13--18-17-15-13-------15-13------15-13------13--17--15---|
B|---------13---------13-------------------13----------13--------13--------------13|
G|---------------------------------------------------------------------------------|
D|---------------------------------------------------------------------------------|
A|---------------------------------------------------------------------------------|
E|---------------------------------------------------------------------------------|


e|-15--13------15--13-------13--18-17-15-13--------|
B|---------13----------13--------------------------|
G|-------------------------------------------------|
D|-------------------------------------------------|
A|-------------------------------------------------|
E|-------------------------------------------------|
Добавлено: 15.07.2012
Другие материалы по этой песне:

Страница создана 01.04.2012
http://primanota.ru/linkin-park/little-boxes-chords.htm
Привет, Гость.
Предлагаем пройти революционный курс по гитаре.
Подарок от PrimaNota.Ru, забирай!