PrimaNota.ru - самый крупный в мире бесплатный архив песенных текстов, аккордов, табулатур и нот


Linkin Park - Broken Foot - таба, видео

Регистрация Запомнить меня
Войти через:  Facebook Google Twitter Vk Yandex Mail.ru

Linkin Park - Broken Foot - таба, видео

Печатать
Просмотров: 253
Drop D: DADGBE

1. Intro riff

------------------|
------------------|
------------------|
-0-7-8-0-7-0-2-3--|     }x8
-0-7-8-0-7-0-2-3--|
-0-7-8-0-7-0-2-3--|

2. Intro riff #2

-----------------------|
-----------------------|
-----------------------|
-----------------------|  }x3
---12-13---12----------|
-12-----12---12-14-15--|

---------------------->
P.M.

---------------|
---------------|
---------------|
---------------|
---12-13---12--|
-12-----12-----|

-------------->
P.M.

3. Chorus

-----------------------------------|
-----------------------------------|
-----------------------------------|
-00000000555500223333333388887777--| }x2
-00000000555500223333333388887777--|
-00000000555500223333333388887777--|

4. Verse

---------------------------------------|
---------------------------------------|
-----7-7-7----9-9-9---10-10-10---9-9-9-|
-0-0-x-x-x00--x-x-x00-x--x--x-00-x-x-x-| }x3
-0-0-5-5-500--7-7-700-8--8--8-00-7-7-7-|
-0-0------00-------00---------00-------|

--------------------------------------------|
--------------------------------------------|
-----7-7-7----9-9-9---10-10-10---1212121212-|
-3-3-x-x-x33--x-x-x33-x--x--x-33-x-x-x-x-x--|
-3-3-5-5-533--7-7-733-8--8--8-33-1010101010-|
-3-3------33-------33---------33------------|

5. Chorus

6. Verse

7. Chorus x2

8. Intro Riff #2

9. Intro(modded):

------------------|
------------------|
------------------|
-0-7-8-0-7-0-2-3--|     }x7
-0-7-8-0-7-0-2-3--|
-0-7-8-0-7-0-2-3--|

------------------|
------------------|
------------------|
-0-2-3-0-2-3-0-2--|
-0-2-3-0-2-3-0-2--|
-0-2-3-0-2-3-0-2--|

Enjoy :). This is 100% good ;d
Добавлено: 18.09.2013
Другие материалы по этой песне:
  • Аккорды и текст

Страница создана 18.09.2013
http://primanota.ru/linkin-park/broken-foot-chords.htm
Привет, Гость.
Предлагаем пройти революционный курс по гитаре.
Подарок от PrimaNota.Ru, забирай!