PrimaNota.ru - самый крупный в мире бесплатный архив песенных текстов, аккордов, табулатур и нот


Ling Tosite Sigure - Seacret Cm - бас-таба, видео

Регистрация Запомнить меня
Войти через:  Facebook Google Twitter Vk Yandex Mail.ru

Ling Tosite Sigure - Seacret Cm - бас-таба, видео

Печатать
Просмотров: 303
================================================================================================================
                                        Seacret CM - Ling Tosite Sigure
================================================================================================================

Standard tuning
\ Slide down
/ Slide up
h Hammer on
My very first tab. Any comments are appreciated \.^-^./


Verse1
G |------------------------------------------------------------------ | 
D |------------------------------------------------------------------ | 
A |--3-8-10---------8-10------------ 8-10----6---8-10---------------- |         x4
E |--------------4---------------6----------------------------------- | 


G | ---------------------------  |
D | -------------8-------------- | 
A | ----------------8---10~ ---- |        x4 
E | ----4~---------------------  | 


G | ------------------------------------------------------------------ | 
D |-- --53-------------53--------------------------------------------  | 
A |--3------65------0-----65------ 4--88--10------6--88---10-6-------- |        x4
E | -----------------------------------------------------------------  | 

Chorus1
G | -------------------------------------------------------------------------  | 
D | -------------------11----------------8----------11---------12------------  | 
A | ----------1-1-1-3\------3-3-5-6---1\-------1-3\-------2-4\-------3-3-5-6-- | 
E | --4-4-4-----------------------------------------------------------------   | 


G | ------------------------------------------------------------------ | 
D |-- --53-------------53--------------------------------------------  | 
A |--3------65------0------65------ 4--88--10------6--88--10-6-------- |        x2
E | -----------------------------------------------------------------  | 


Chorus 2
G | -----------------------------------------------------------------------  | 
D | ------------------------------------------------------------------------ | 
A | 3-3-3---------6-6-6----5-5-5-5-3-3-3-----------6-6-6----5-5-6-5--------- |          x4
E | -------4-4-4---------------------------3-3-3---------------------------  | 


G |----------------------------------------------- ------------------- | 
D |------------------------------------------- ----------------------- | 
A |--3--8--10--------8--10---------- 8--10------6--8--10-------------- |        x2
E |----------------4-------------6------------------------------------ | 


Bridge
G |------------------------------------------------------------|
D |------------------------------------------------------------|
A |--3-3--------6-6----------------3-3-------------------------|
E |-------4-4--------10-10-11h10-------4-4----6~----2\12/------|


Outro
G | --------------------------------------------------------------------------  | 
D | -------------------11----------------8----------11---------12-------------  | 
A | ----------1-1-1--3\-----3-3-5-6---1\-------1-3\-------2-4\-------3-3-5-6--- | 
E | --4-4-4------------------------------------------------------------------   | 

G | --------------------------------------------------------------------------  | 
D | --------------------------------------------------------------------------- | 
A | 3-3-3------------6-6-6----5-5-5-5-----3-3-3-----------6-6-6----5-5-6-5----- |       x4
E | ---------4-4-4------------------------------4-4-4-------------------------  | 





Добавлено: 27.08.2015
Другие материалы по этой песне:
  • Аккорды и текст

Страница создана 27.08.2015
http://primanota.ru/ling-tosite-sigure/seacret-cm-chords.htm
Привет, Гость.
Предлагаем пройти революционный курс по гитаре.
Подарок от PrimaNota.Ru, забирай!