PrimaNota.ru - самый крупный в мире бесплатный архив песенных текстов, аккордов, табулатур и нот


Limp Bizkit - The Only One - аккорды и текст, таба, видео

Регистрация Запомнить меня
Войти через:  Facebook Google Twitter Vk Yandex Mail.ru

Limp Bizkit - The Only One - аккорды и текст, таба, видео

Печатать
Просмотров: 139
Авторы: John Otto, Fred Durst, Mike Smith, Sam Rivers

The Only One
Limp Bizkit
Tuning: Drop B (B F# B E G# C#)
 


Intro: w/heavy dist
C#|--------------------------------||
G#|--------------------------------||
E|--------------------------11-11-||
B|--------------------------x--x--||
F#|-0-3--6-5-3--3h5--3-0-----9--9--||
B|-0-3--6-5-3--3h5--3-0--0--0--0--||


Verse: w/havy dist
C#|--------------------------------||
G#|--------------------------------||
E|--------------------------------||
B|--------------------------------||
F#|-0-3--6-5-3---------------9--9--||
B|-0-3--6-5-3--3h5--3-0--0--0--0--||
PM. . . . . . . . . . .


Chorus: W/heavy dist
C#|-------------------------------------------||
G#|-------------------------------------------||
E|-/17--17-17-17-17--17/19--16--16-16-16-16--||
B|-------------------------------------------||
F#|-/15--15-15-15-15--15/17--14--14-14-14-14--||
B|--0----------------0------0----------------||


C#|--------------------------------||
G#|--------------------------------||
E|--------------------------11-11-||
B|--------------------------x--x--||
F#|-0-3--6-5-3--3h5--3-0-----9--9--||
B|-0-3--6-5-3--3h5--3-0--0--0--0--||


Interlude:
Gtr.1: w/dist
C#|---------------------------------------------||
G#|---------------------------------------------||
E|-------16b17r16----------12-11-12--11-12-14--||
B|-12----------------10------------------------||
F#|---------------------------------------------||
B|---------------------------------------------||
| ||
|Gtr.2: w/dist ||
C#|---------------------------------------------||
G#|---------------------------------------------||
E|---------------------------------------------||
B|---------------------------------------------||
F#|-------14b15r14----------10-9--10------------||
B|-12----------------10------------------------||


C#|---------------------------------------------||
G#|---------------------------------------------||
E|-------16b17r16----------12-11-12--11-12-14--||
B|-------------------10------------------------||
F#|---------------------------------------------||
B|---------------------------------------------||
| ||
|Gtr.2: w/dist ||
C#|---------------------------------------------||
G#|---------------------------------------------||
E|---------------------------------------------||
B|---------------------------------------------||
F#|-------14b15r14----------10-9--10------------||
B|-------------------10------------------------||


C#|---------------------------------------------||
G#|---------------------------------------------||
E|-------16b17r16----------12-11-12--11-12-14--||
B|-------------------10------------------------||
F#|---------------------------------------------||
B|---------------------------------------------||
| ||
|Gtr.2: w/dist ||
C#|---------------------------------------------||
G#|---------------------------------------------||
E|---------------------------------------------||
B|---------------------------------------------||
F#|-------14b15r14----------10-9--10------------||
B|-------------------10------------------------||


C#|---------------------------------------------||
G#|---------------------------------------------||
E|-------16b17r16------------------------------||
B|-------------------10------------------------||
F#|---------------------------------------------||
B|---------------------------------------------||
| ||
|Gtr.2: w/dist ||
C#|---------------------------------------------||
G#|---------------------------------------------||
E|---------------------------------------------||
B|---------------------------------------------||
F#|-------14b15r14------------------------------||
B|-------------------10------------------------||



Interlude.pt.2: w/dist
C#|----------------------------------------------------------------||
G#|----------------------------------------------------------------||
E|------------------------------------------------------19-17-----||x3
B|-------------------------------------------------19---------19--||
F#|-15-14-15-15--15-14--15-14-15-15--15-14-15/17-------------------||
B|----------------------------------------------------------------||


C#|----------------------------------------------------------------||
G#|----------------------------------------------------------------||
E|----------------------------------------------------------------||
B|----------------------------------------------------------------||
F#|-15-14-15-15--15-14--15-14-15-15--15-14-15/17~~-----------------||
B|----------------------------------------------------------------||


Bridge: w/dist
C#|--------------------------------||
G#|--------------------------------||
E|--------------------------------||
B|--------------------------------||
F#|--------------------------------||
B|-0-3--6-5-3--3h5--3-0--0--0--0--||


C#|-------------------------------------------||
G#|-------------------------------------------||
E|-/17--17-17-17-17--17/19--16--16-16-16-16--||
B|-------------------------------------------||
F#|-/15--15-15-15-15--15/17--14--14-14-14-14--||
B|--0----------------0------0----------------||


Outro:gtr.2 w/dist (gtr.1 plays intro riff)
C#|---------------------------------||
G#|---------------------------------||
E|-19-19-19-19-19b---19-19-19-19b--||
B|---------------------------------||
F#|---------------------------------||
B|---------------------------------||
Добавлено: 20.02.2014
Другие материалы по этой песне:

Страница создана 02.04.2012
http://primanota.ru/limp-bizkit/the-only-one-chords.htm
Привет, Гость.
Предлагаем пройти революционный курс по гитаре.
Подарок от PrimaNota.Ru, забирай!