PrimaNota.ru - самый крупный в мире бесплатный архив песенных текстов, аккордов, табулатур и нот


Limp Bizkit - Underneath The Gun - аккорды и текст, таба, видео

Регистрация Запомнить меня
Войти через:  Facebook Google Twitter Vk Yandex Mail.ru

Limp Bizkit - Underneath The Gun - аккорды и текст, таба, видео

Печатать
Просмотров: 216
Авторы: John Otto, Fred Durst, Mike Smith, Sam Rivers

Underneath The Gun
Limp Bizkit
C# F# B E G# C#
 
bass intro

intro
C#|-3-2-2~~--------------3-2-2~~---------------3-2-2~~--------------3-2-2~~-|
G#|-3-3-3~~--------------3-3-3~~---------------3-3-3~~--------------3-3-3~~-|
E |-2-2-2~~--------------2-2-2~~---------------2-2-2~~--------------2-2-2~~-|
B |-0-0-0~~--------------0-0-0~~---------------0-0-0~~--------------0-0-0~~-|
F#|-----0~~------------------0~~-------------------0~~------------------0~~-|
C#|-------------------------------------------------------------------------|

verse
C#|---3-2-2~~----|
G#|---3-3-3~~----|
E |---2-2-2~~----|
B |---0-0-0~~----|
F#|-------0~~----|
C#|--------------|

chorus I fill
C#|--------------|---3-2-2~~----|unsure about chorus 1
G#|---8-----10---|---3-3-3~~----|but sounds close enuff
E |---7------9---|---2-2-2~~----|
B |---x------x---|---0-0-0~~----|
F#|---8-----10---|-------0~~----|
C#|--------------|--------------|

chorus II fill
C#|--------------------------------------------------------| |------------|
G#|--------------------------------------------------------| |------------|
E |------------------------------------5*-7*-7*------------| |------------|
B |-------7-7-5------7-7-5------7-7-5--5*-7*-7*--5---------| |---5--------|
F#|---5-5-5-5\3--5-5-5-5\3--5-5-5-5\3------------3-------5-| |---3-----5~-|
C#|------------------------------------------------------3-| |---------3~-|
pm . . . . . .

solo
w/delay & distortion
C#|---------------------------------------------------------------|
G#|---------------------------------------------------------------|
E |-s12~~---11~~--11-11-11-11h12-12-12-12-12s14-14-14-17-17s19-17-|
B |---------------------------------------------------------------|
F#|---------------------------------------------------------------|
C#|---------------------------------------------------------------|

C#|----------------------------------------------------|
G#|-17-19-20~-20-19-17-19-20~-19-17-19-20-19-17--------|
E |---------------------------------------------19-19--|
B |----------------------------------------------------|
F#|----------------------------------------------------|
C#|----------------------------------------------------|

fill
C#|-------------------------------------|
G#|--20~~20--------20-20~~--------------|
E |---------19-19~--------19-19~--------|
B |-------------------------------------|
F#|-------------------------------------|
C#|-------------------------------------|

chorus III
C#|--20-19-17----17---------------------------------------------------|
G#|-----------20----20-19-17----17------------------------------------|
E |--------------------------19----19-17-19^19^-19p17----17----17-19--|
B |---------------------------------------------------19----19--------|
F#|-------------------------------------------------------------------|
C#|-------------------------------------------------------------------|

fill fill
C#|-20-19-17----17-------------------| |-20-19-17----17----------------------|
G#|----------20----20-19-17----17----| |----------20----20-19-17----17-------|
E |-------------------------19----19-| |-------------------------19----19-17-|
B |----------------------------------| |-------------------------------------|
F#|----------------------------------| |-------------------------------------|
C#|----------------------------------| |-------------------------------------|

bridge
C#|----------------------------------------------------|
G#|----------------------------------------------------|
E |----------------------------------------------------|
B |-10---------9s10---------9s10---------7-7-7-7-7-7---|
F#|--8-8-8-8-8-7s-8-8-8-8-8-7s-8-8-8-8-8-5-5-5-5-5-5---|
C#|----------------------------------------------------|
pm . . . . . . . . . . . . . . . . . .

breakdown fill
C#|--0--------0----------0--------| |-------------------------|
G#|--0--------0----------0--------| |-------------------------|
E |--2--------6----------6~~^~~---| |---11-----13---14--------|
B |--2--------4----------7--------| |----x------x----x--------|
F#|--0--------2----------5--------| |----9-----11---12--------|
C#|-------------------------------| |-------------------------|

riffs are there..just piece em 2getha!

peace!

shoutout mcud

lyrics

go

i stare into space and hope we're not alone
i am searching for something thats better than home
ive been working so hard

the stress is tremendous
and pressure is endless
no one on this planet
like me to be friends with
ive been working so hard
ive been working so hard

im underneath the sun
and im underneath the gun

im losing my mind
and i know theres no remedy
think im a failure whos living on memories
ive been working so hard

lonliness cant be cured from no medicine
look to the starts
so theyll straighten my head again
ive been working so hard
ive been working so hard

im underneath the sun
im underneath the gun

chorus
im a fool to think the blame will go away
such a fool to take the blame and run away

sometimes i beat up myself
i block my own way
i cloud all my thoughts
please go away
oh nevermind please
im checkin out now
wont ever come back now
that my life doesnt exist
yeah, youre right
how does it feel to be right
knowing that i was wrong
nothing is right when youre wrong
yeah, youre right
how does it feel to be right
knowing that i was wrong
nothing is right when ur wrong

im underneath the sun
im underneath the gun

chorus
Добавлено: 30.03.2014
Другие материалы по этой песне:

Страница создана 07.03.2012
http://primanota.ru/limp-bizkit/underneath-the-gun-chords.htm
Привет, Гость.
Предлагаем пройти революционный курс по гитаре.
Подарок от PrimaNota.Ru, забирай!