PrimaNota.ru - самый крупный в мире бесплатный архив песенных текстов, аккордов, табулатур и нот


Limp Bizkit - Ready To Go - текст песни, таба, видео

Регистрация Запомнить меня
Войти через:  Facebook Google Twitter Vk Yandex Mail.ru

Limp Bizkit - Ready To Go - текст песни, таба, видео

Печатать
Просмотров: 97
Уроки эстрадного вокала в Санкт-Петербурге
Ready To Go - Limp Bizkit
Tabbed by:okman
Artist:Limp Bizkit
Album:Stampede of the disco elephants
Song:Ready to Go
Tuning:Drop D (e B G D A D)

I have copied the intro solo (00:03-00:06) from Songsterr and trascribed it for Drop D , so it's not my work.
The rest of the tab is exclusively my work.


[00:03-00:06]

e|---------------------------------------------------------------------------|
B|---------------------------------------------------------------------------|
G|-14-10-12-14-12-10-12-9-10-12-10-9-10-9------------------------------------|
D|----------------------------------------12-10------------------------------|x1
A|---------------------------------------------------------------------------|
D|---------------------------------------------------------------------------|


[00:06-00:16]

e|---------------------------------------------------------------------------|
B|---------------15\--------------6\-----------------------------------------|
G|-----/7---------------/7---------------------------------------------------|
D|------x----------------x---------------------------------------------------|x2
A|-0-0-/5-0--0-0----0-0-/5-0--0-0--------------------------------------------|
D|-0-0----0--0-0----0-0----0--0-0--------------------------------------------|
 

[00:16-00:20]

e|---------------------------------------------------------------------------|
B|---------------15\---------------------------------------------------------|
G|-----/7--------------------------------------------------------------------|
D|------x--------------------------------------------------------------------|x1
A|-0-0-/5-0--0-0-------------------------------------------------------------|
D|-0-0----0--0-0-------------------------------------------------------------|
 

[00:20-00:23]

e|-----------15h17--15h17-15-15----------------------------------------------|
B|-15--15-15--------------------15-18-18-18-17-18-17-------------------------|
G|---------------------------------------------------------------------------|
D|---------------------------------------------------------------------------|x1
A|---------------------------------------------------------------------------|
D|---------------------------------------------------------------------------|


[00:23-00:25]

e|-----------15h17--15h17-15-15----------------------------------------------|
B|-15--15-15--------------------15-18-18-18----------------------------------|
G|---------------------------------------------------------------------------|
D|---------------------------------------------------------------------------|x1
A|---------------------------------------------------------------------------|
D|---------------------------------------------------------------------------|


[00:25-00:37]

e|---------------------------------------------------------------------------|
B|---------------15\--------------6\-----------------------------------------|
G|-----/7---------------/7---------------------------------------------------|
D|------x----------------x---------------------------------------------------|x2
A|-0-0-/5-0--0-0----0-0-/5-0--0-0--------------------------------------------|
D|-0-0----0--0-0----0-0----0--0-0--------------------------------------------|
 

[00:37-00:42]

e|---------------------------------------------------------------------------|
B|---------------15\-----------------------------6\--------------------------|
G|-----/7--------------------------------------------------------------------|
D|------x--------------------------------------------------------------------|x1
A|-0-0-/5-0--0-0-------------------------------------------------------------|
D|-0-0----0--0-0-------------------------------------------------------------|


[00:42-00:47]

e|---------------------------------------------------------------------------|
B|---------------15\--------------6\-----------------------------------------|
G|-----/7---------------/7---------------------------------------------------|
D|------x----------------x---------------------------------------------------|x1
A|-0-0-/5-0--0-0----0-0-/5-0--0-0--------------------------------------------|
D|-0-0----0--0-0----0-0----0--0-0--------------------------------------------|
 

[00:47-00:56]

e|-----------15h17--15h17-15-15----------------------------------------------|
B|-15--15-15--------------------15-18-18-18-17-18-17-------------------------|
G|---------------------------------------------------------------------------|
D|---------------------------------------------------------------------------|x3
A|---------------------------------------------------------------------------|
D|---------------------------------------------------------------------------|


[00:56-01:00]

e|-----------15h17--15h17-15-15----------------------------------------------|
B|-15--15-15--------------------15-18-18-18----------------------------------|
G|---------------------------------------------------------------------------|
D|---------------------------------------------------------------------------|x1
A|---------------------------------------------------------------------------|
D|---------------------------------------------------------------------------|


[01:00-01:10] 

e|---------------------------------------------------------------------------|
B|---------------15\--------------6\-----------------------------------------|
G|-----/7---------------/7---------------------------------------------------|
D|------x----------------x---------------------------------------------------|x2
A|-0-0-/5-0--0-0----0-0-/5-0--0-0--------------------------------------------|
D|-0-0----0--0-0----0-0----0--0-0--------------------------------------------|
 

[01:10-01:19]

e|-----------15h17--15h17-15-15----------------------------------------------|
B|-15--15-15--------------------15-18-18-18-17-18-17-------------------------|
G|---------------------------------------------------------------------------|
D|---------------------------------------------------------------------------|x3
A|---------------------------------------------------------------------------|
D|---------------------------------------------------------------------------|


[01:19-01:21]
e|-----------15h17--15h17-15-15----------------------------------------------|
B|-15--15-15--------------------15-18-18-18----------------------------------|
G|---------------------------------------------------------------------------|
D|---------------------------------------------------------------------------|x1
A|---------------------------------------------------------------------------|
D|---------------------------------------------------------------------------|


[01:21-01:33]

e|---------------------------------------------------------------------------|
B|---------------------------------------------------------------------------|
G|---------------------------------------------------------------------------|
D|---------------------------------------------------------------------------|
A|---------------------------------------------------------------------------|
D|---------------------------------------------------------------------------|


[01:33-01:43]

e|---------------------------------------------------------------------------|
B|---------------------------------------------------------------------------|
G|-----/7-----/7---/7-----/7-------------------------------------------------|
D|------x------x----x------x-------------------------------------------------|x2
A|-0-0-/5-0-0-/5-0-/5-0-0-/5-0-----------------------------------------------|
D|-0-0----0-0----0----0-0----0-----------------------------------------------|


[01:43-02:06]

e|---------------------------------------------------------------------------|
B|---------------15\--------------6\-----------------------------------------|
G|-----/7---------------/7---------------------------------------------------|
D|------x----------------x---------------------------------------------------|x4
A|-0-0-/5-0--0-0----0-0-/5-0--0-0--------------------------------------------|
D|-0-0----0--0-0----0-0----0--0-0--------------------------------------------|
 

[02:06-02:14]

e|-----------15h17--15h17-15-15----------------------------------------------|
B|-15--15-15--------------------15-18-18-18-17-18-17-------------------------|
G|---------------------------------------------------------------------------|
D|---------------------------------------------------------------------------|x3
A|---------------------------------------------------------------------------|
D|---------------------------------------------------------------------------|


[02:14-02:17] 

e|-----------15h17--15h17-15-15----------------------------------------------|
B|-15--15-15--------------------15-18-18-18----------------------------------|
G|---------------------------------------------------------------------------|
D|---------------------------------------------------------------------------|x1
A|---------------------------------------------------------------------------|
D|---------------------------------------------------------------------------|


[02:17-02:28]

e|---------------------------------------------------------------------------|
B|---------------15\--------------6\-----------------------------------------|
G|-----/7---------------/7---------------------------------------------------|
D|------x----------------x---------------------------------------------------|x2
A|-0-0-/5-0--0-0----0-0-/5-0--0-0--------------------------------------------|
D|-0-0----0--0-0----0-0----0--0-0--------------------------------------------|
 

[02:28-02:31] 

e|-----------15h17--15h17-15-15----------------------------------------------|
B|-15--15-15--------------------15-18-18-18-17-18-17-------------------------|
G|---------------------------------------------------------------------------|
D|---------------------------------------------------------------------------|x1
A|---------------------------------------------------------------------------|
D|---------------------------------------------------------------------------|


[02:31-02:33] 

e|-----------15h17--15h17----------------------------------------------------|
B|-15--15-15-----------------------------------------------------------------|
G|---------------------------------------------------------------------------|
D|---------------------------------------------------------------------------|x1
A|---------------------------------------------------------------------------|
D|---------------------------------------------------------------------------|


[02:33-02:40] 

e|-----------15h17--15h17-15-15----------------------------------------------|
B|-15--15-15--------------------15-18-18-18-17-18-17-------------------------|
G|---------------------------------------------------------------------------|
D|---------------------------------------------------------------------------|x2
A|---------------------------------------------------------------------------|
D|---------------------------------------------------------------------------|


[02:40-02:51] 

e|---------------------------------------------------------------------------|
B|---------------------------------------------------------------------------|
G|---------------------------------------------------------------------------|
D|---------------------------------------------------------------------------|
A|---------------------------------------------------------------------------|
D|---------------------------------------------------------------------------|


[02:51-03:02] 

e|-----------15h17--15h17-15-15----------------------------------------------|
B|-15--15-15--------------------15-18-18-18-17-18-17-------------------------|
G|---------------------------------------------------------------------------|
D|---------------------------------------------------------------------------|x4
A|---------------------------------------------------------------------------|
D|---------------------------------------------------------------------------|


[03:02-03:24] 

e|---------------------------------------------------------------------------|
B|---------------15\--------------6\-----------------------------------------|
G|-----/7---------------/7---------------------------------------------------|
D|------x----------------x---------------------------------------------------|x4
A|-0-0-/5-0--0-0----0-0-/5-0--0-0--------------------------------------------|
D|-0-0----0--0-0----0-0----0--0-0--------------------------------------------|


[03:24-03:35]

e|-----------15h17--15h17-15-15----------------------------------------------|
B|-15--15-15--------------------15-18-18-18-17-18-17-------------------------|
G|---------------------------------------------------------------------------|
D|---------------------------------------------------------------------------|x4
A|---------------------------------------------------------------------------|
D|---------------------------------------------------------------------------|


[03:35-04:00] 

e|----------------------13b-14b----------------------------------------------|
B|-15--12-17-13-17\-13b-x---x------------------------------------------------|
G|-x---x--x--x--x---x---10b-11b----------------------------------------------|
D|-12--9--14-10-14\-10b------------------------------------------------------|x2
A|---------------------------------------------------------------------------|
D|---------------------------------------------------------------------------|


[04:00-04:03]

e|---------------------------------------------------------------------------|
B|-15\----------------6\-----------------------------------------------------|
G|---------/7----------------------------------------------------------------|
D|----------x----------------------------------------------------------------|x1
A|-----0-0-/5-0--0-0---------------------------------------------------------|
D|-----0-0----0--0-0---------------------------------------------------------|


[04:03-04:20]

e|---------------------------------------------------------------------------|
B|---------------15\--------------6\-----------------------------------------|
G|-----/7---------------/7---------------------------------------------------|
D|------x----------------x---------------------------------------------------|x3
A|-0-0-/5-0--0-0----0-0-/5-0--0-0--------------------------------------------|
D|-0-0----0--0-0----0-0----0--0-0--------------------------------------------|


[04:20-04:31]

e|-----------15h17--15h17-15-15----------------------------------------------|
B|-15--15-15--------------------15-18-18-18-17-18-17-------------------------|
G|---------------------------------------------------------------------------|
D|---------------------------------------------------------------------------|x4
A|---------------------------------------------------------------------------|
D|---------------------------------------------------------------------------|


************************************
| h   Hammer-on
| /   Slide up
| \   Slide down
| x   Dead note
************************************
Добавлено: 06.04.2017
Другие материалы по этой песне:

Страница создана 01.07.2013
http://primanota.ru/limp-bizkit/ready-to-go-chords.htm
Привет, Гость.
Предлагаем пройти революционный курс по гитаре.
Подарок от PrimaNota.Ru, забирай!