PrimaNota.ru - самый крупный в мире бесплатный архив песенных текстов, аккордов, табулатур и нот


Limp Bizkit - Sanitarium Live - таба, видео

Регистрация Запомнить меня
Войти через:  Facebook Google Twitter Vk Yandex Mail.ru

Limp Bizkit - Sanitarium Live - таба, видео

Печатать
Просмотров: 97
Song: Sanitarium (live MTV Metallica Icon)
Band: Limp Bizkit
Album: -
Guitarist: Mike Smith

Tabbed by: bizkitclan (bizkitclan@katamail.com)

x = palm muted
(#) = natural harmonics

***Intro
|-----(12)------3---2-----(12)------2-2/3----||
|----------(12)---0------------(12)---0/0----||
|--------------------------------------------||
|--------------------------------------------||
|--------------------------------------------||
|--0-------------------0---------------------||

|-----(12)-------||
|----------(12)--||
|----------------||
|----------------|| Repeat this 4 times
|----------------||
|--0-------------||

***Riff 1 (x2)
|----------------------------------------------------||
|----------------------------------------------------||
|--------0--------0--------0-------------------------||
|------4--------5--------7--------0------0-----------||
|----2--------3--------5--------4------2-------------||
|--0--------0--------0--------5------3------3--5-----||

***Verse (x2)
|----------------------------------||
|----------------------------------||
|--------0-------0-------0---------||
|------4-------5-------7------0----||
|----2-------3-------5------4---4--||
|--0-------0-------0------5--------||

|---------------------------------------------||
|---------------------------------------------||
|--------0-------0-------0--------------------||
|------4-------5-------7-------0-----0--------||
|----2-------3-------5-------4-----4----------||
|--0-------0-------0-------5-----2------3--5--||

***Prechorus
|--------------------------------------------------||
|--------------------------------------------------||
|-------4-4-------5-5-------7-7--------------------||
|-------4-4-------5-5-------7-7--7-7-7--5----------||
|-------2-2-------3-3-------5-5--7-7-7--5----------||
|--0-0-------0-0-------0-0-------5-5-5--3----------||
   x x       x x       x x       x x x
|--------------------------------------------------||
|--------------------------------------------------||
|-------4-4-------5-5-------7-7--------------------||
|-------4-4-------5-5-------7-7--7-7-7--5-5-5-5-5--||
|-------2-2-------3-3-------5-5--7-7-7--5-5-5-5-5--||
|--0-0-------0-0-------0-0-------5-5-5--3-3-3-3-3--||
   x x       x x       x x       x x x  x
***Chorus
|--------------------------------------------------||
|--------------------------------------------------||
|------------------5-------5-5---------------------||
|--2-2-5-4-2-------5-------5-5--5-5--5--4-4--4-----||
|--2-2-5-4-2--0-0--3--0-0--3-2--5-5--5--4-4--4-----||
|--0-0-3-2-0--0-0-----0-0-------3-3--3--2-2--2-----||
              x x     x x       x x     x x
***Interlude 1
|--------------------||
|--------------------||
|--------------------||
|--------------------|| Repeat over and over
|--------------------||
|--0--0--0--0--0--0--||
   x  x  x  x  x  x
|----------------------------------------------||
|----------------------------------------------||
|----------------------------------------------||
|--7-8-----7-----------------------------------||
|--7-8-----7-----------------------------------||
|--5-6--0--5--0--0--0--0--0--0--0--0--0--0--0--||
        x     x  x  x  x  x  x  x  x  x  x  x  
|------------------------------------------||
|------------------------------------------||
|------------------------------------------||
|--7-8-----7--7-8-----7--------------------||
|--7-8-----7--7-8-----7--------------------||
|--5-6--0--5--5-6--0--5--0--0--0--0--0--0--||
     x          x     x  x  x  x  x  x
***Interlude 2
|---------------------------------------------------------||
|---------------------------------------------------------||
|---------------------7----------3----------5----------4--||
|----------2----------7----------3----------5----------4--||
|----------2----------5----------1----------3----------2--||
|--0-0--0-----0-0--0-----0-0--0-----0-0--0-----0-0--0-----||
   x x  x     x x  x     x x  x     x x  x     x x  x
|-------------------------||
|-------------------------||
|-------7---------5--4----||
|--2----7----3----5--4----||
|--2----5----3----3--2----||
|------------1------------||
     
Добавлено: 24.10.2013
Другие материалы по этой песне:
  • Аккорды и текст

Страница создана 24.10.2013
http://primanota.ru/limp-bizkit/sanitarium-live-chords.htm
Привет, Гость.
Предлагаем пройти революционный курс по гитаре.
Подарок от PrimaNota.Ru, забирай!