PrimaNota.ru - самый крупный в мире бесплатный архив песенных текстов, аккордов, табулатур и нот


Lifelover - Mitt Oppna Oga - текст песни, таба, видео

Регистрация Запомнить меня
Войти через:  Facebook Google Twitter Vk Yandex Mail.ru

Lifelover - Mitt Oppna Oga - текст песни, таба, видео

Печатать
Просмотров: 763
Уроки эстрадного вокала в Санкт-Петербурге
Lifelover – Mitt Öppna Öga

INTRO GUITAR 1
E |------------------------------------------------------------------|
b |------------------------------------------------------------------|
g |----------------------------4--4--4--4----------------------------|
d |---5--5--5--5--4--4--4--4--2--2--2--2---5\4-4---------------------|
a |--2--2--2--2--3--3--3--3----------------3\2-2--44/5-5-------------|
e |-----------------------------------------------22/3-3-------------|

INTRO GUITAR 2
E |--------------------------------------------------------------|
b |--------------------------------------------------------------|
g |--------------------44444444----------------------------------|
d |--44444444-55555555-22222222--5\4-4---------------------------|
a |--22222222-33333333-----------3\2-2--44/5-5-------------------|
e |-------------------------------------22/3-3-------------------|

VERSE
E |-----------------------------------------------|
b |-----------------------------------------------|
g |-----------------------------------------------|
d |----------------222-55-444---------------------|
a |--22222222-------------------------------------|
e |--00000000-------------------------------------|

SEX-PART
E |----------------------------------------------------|
b |----------------------------------------------------|
g |----------------------------------------------------|
d |--99--999--9-9--999---------------------------------|
a |--77--777--7-7--777--99--999--7-7--777--------------|
e |---------------------77--777--5-5--555--------------|

CHORUS GUITAR 1
E |------------------------------------------------------------------|
b |------------------------------------------------------------------|
g |----------------------------4--4--4--4----------------------------|
d |---5--5--5--5--4--4--4--4--2--2--2--2---5\4-4---------------------|
a |--2--2--2--2--3--3--3--3----------------3\2-2--44/5-5-------------|
e |-----------------------------------------------22/3-3-------------|

CHORUS GUITAR 2
E |--------------------------------------------------------------|
b |--------------------------------------------------------------|
g |--------------------44444444----------------------------------|
d |--44444444-55555555-22222222--5\4-4---------------------------|
a |--22222222-33333333-----------3\2-2--44/5-5-------------------|
e |-------------------------------------22/3-3-------------------|

OUTRO GUITAR 1
E |-----------------------------------------------------------------|
b |-----------------------------------------------------------------|
g |-----------------------------------------------------------------|
d |-----------------------------------------------------------------|
a |---7--7--7--7---4--4--4--4----5--5--5--5---4--4--4--4------------|
e |--5--5--5--5---5--5--5--5---7--7--7--7----5--5--5--5-------------|

OUTRO GUITAR 2
E |------------------------------------------------------------|
b |------------------------------------------------------------|
g |------------------------------------------------------------|
d |--99999999--66666666--44444444--22222222--------------------|
a |--77777777--44444444--22222222--00000000--------------------|
e |------------------------------------------------------------|

E |-----------------------------------------------|
b |-----------------------------------------------|
g |-----------------------------------------------|
d |-----------------------------------------------|
a |--7----4^--------------------------------------|
e |-----5-----------------------------------------|
Добавлено: 14.08.2013
Другие материалы по этой песне:
  • Аккорды и текст

Страница создана 14.08.2013
http://primanota.ru/lifelover/mitt-oppna-oga-chords.htm
Привет, Гость.
Предлагаем пройти революционный курс по гитаре.
Подарок от PrimaNota.Ru, забирай!