PrimaNota.ru - самый крупный в мире бесплатный архив песенных текстов, аккордов, табулатур и нот


Libido - Esther Fes - таба, видео

Регистрация Запомнить меня
Войти через:  Facebook Google Twitter Vk Yandex Mail.ru

Libido - Esther Fes - таба, видео

Печатать
Просмотров: 74
Transcrito por: Julio cesar velasquez vara (juliokorn57@
Procedencia: lima - Peru
banda:libido


              
intro:
   Am  C/G     D    C               Am   C/G   D      C


|--0----0------2----0---0----0----0--0---0----2---2--0-----------
|--1----1------3----1---0h1----3--1--1---1----3-0----1--0h1--0---
|--2----0---0--2----0---0---------2--2---0----2------0--0h2--0---
|--2----2------0----2-------------2--2---2----0------2---------2-
|--0----3------0----3-------------0--0---3----0------3-----------
|--0----3------x----0-------------0--0---3----x------0-----------


       
     Caminar con la misma piel 
     Am                   C/G
     Sin el sol en tu rostro
           D         C
e|---------------------
B|---1h0---------------
G|-------0-------------
d|---------2-----------

     Y recorrer con los mismos pies
       Am                      C/G
     Hacia donde irassssssss?
D          C                 Am     C/G      D      C
     Y vuelvo a andar sobre el mismo riel
       Am                            C/G
     Contra el viento de la noche


e|---0-----------------
B|---1h0---------------
G|-------0-------------
d|---------2-----------

   
            D            C
      Y me acerco mas al finallllllllll
      Am                   C/G
      Ya no puedo esperar
D           C
      Y creo en ti................. voz de madrugada 
        D       Em       G                 D
      Y soñar despertar en tus ojos
      D   Em        G          D
      Solo puedo jurar que estare biennn


           C                         Em      


primer solo:


      C          G     C      G       Am        Em

|--------------7------------------------------------------------
|------7--7h8-------8--------0--1p0------1------1--0------------
|----9--------------------2-----------2---------------2---------
|-------------------------------------------------------2-------
|---------------------------------------------------------------
|---------------------------------------------------------------


      Y vuelvo a andar sobre el mismo riel
        Am                            C/G
      Y el recuerdo de esta noche
            D             C

e|--0----0--------------
B|--0h1----3--1---------
G|--0h2-----------------
d|----------------------


             
      Y me acerco mas al finalllllll
      Am                   C/G


e|---------------------
B|---1h0---------------
G|-------0-------------
d|---------2-----------

     
 Ya no puedo esperarte
D           C
(Coro)
      y creo en ti en tu voz en la madrugada
        D       Em       G         D


e|--------10-----------
B|-----------------------10/12--
G|---11-12----11--12-----------


      Y soñar despertar en tus ojos
          Em        G          D


e|--------10-----------10-----------
B|-----------------------10-10-10h12-
G|---11-12----11--12----------------


      Y solo poder jurar que estare biennnnnnn
             C                         Em     


e|---10-10-10-10-10-10----
B|------------------------
G|-----9--9--9--9--9--9---


y este el segundo solo:

         C   G      C G  Am                   Em            
|---3------7---------------------------------------------
|-----5---------5---3---1---0h1--1------0----------------
|-------5---------------------------------2-0------------
|---------------------------------------------2----------
|--------------------------------------------------------
|--------------------------------------------------------


             C  G       C     G         Am
|------------------------3-----7-------------------------
|---0--1--3--3h5--3--------5-------5--3--1---------------
|---0--2--4--4h5--4----------5-----5--4--2---------------
|--------------------------------------------------------
|--------------------------------------------------------
|--------------------------------------------------------


                Em
|-------------0------3-
|-0-----1-------1------
|---2-----2-------2----
|-----2----------------
|----------------------
|----------------------


      y creo en ti en tu voz en la madrugada
        D       Em       G         D


e|-------------------7------------7------7------    (este arpegio se alterna
B|--7---7-8---8-10-----8----8-10-----8-10----8-7--8 en toda la parte final)
G|----7----(7)----(7)----(7)----(7)-------(7)---7-


      Y soñar despertar en tus ojos
          Em        G          D
      Y solo poder jurar
             C
      Que creo en ti................. voz de madrugada 
          D       Em       G                 D

e|--------10-
B|---7-8-----
G|-----------


      Y soñar despertar en tus ojos
      D   Em        G          D
      Solo puedo jurar que estare biennn
           C                         Em


()=nota opcional

saludos para la gente de PaLeRmasaCre
pa la UnFv | FiiS <...> a peque, wedy , tongo y demas patas
y otro muy especial a la chica que le da sentido a mi vida ...
si a ti nelida te amooo... solo quiero de ti paciencia que ya estaremos juntos
!CoNtEr 1.6!
Добавлено: 24.09.2015
Другие материалы по этой песне:
  • Аккорды и текст

Страница создана 24.09.2015
http://primanota.ru/libido/esther-fes-chords.htm
Привет, Гость.
Предлагаем пройти революционный курс по гитаре.
Подарок от PrimaNota.Ru, забирай!