PrimaNota.ru - самый крупный в мире бесплатный архив песенных текстов, аккордов, табулатур и нот


Libido - Hombre Loco - таба, видео

Регистрация Запомнить меня
Войти через:  Facebook Google Twitter Vk Yandex Mail.ru

Libido - Hombre Loco - таба, видео

Печатать
Просмотров: 116
WENO ESTA CANCION ES UN INSTRUMENTAL DE LA BANDA
 PERUANA  LIBIDO Y DE SU ULTIMO DISCO RAREZAS?
ESTA MUY XVR ESPERO Q LES GUSTE:
INTRO:
=====
El intro empieza con bajo y la guitar va tocando ReM


     e||--2-----|--2--|--2--|----|
     b||--3-----|--3--|--3--|----|
     g||--2-----|--2--|--2--|----|
     D||--------|-----|-----|----|
     A||--------|-----|-----|----|
     E||--------|-----|-----|----|

Y empieza el arpegio? ( VA CARGADO DE EFECTOS DE GUITARRA ELECTRICA)

     e||---5--7---------------------------------------------------|
     b||---------8--6--5---------5--------------------------------|
     g||------------------7---7-----7--5--7-----------------------|
     D||--------------------------------------3--0----------------|
     A||------------------------------------------------------3/5-|
     E||--------------------------------------------1--3--1-------|

     e||---5-5-5-5-5-5--4-4-4-4-4-4-------------------------------|
     b||---5-5-5-5-5-5--4-4-4-4-4-4-------------------------------|
     g||---6-6-6-6-6-6--5-5-5-5-5-5-------------------------------|
     D||---7-7-7-7-7-7--6-6-6-6-6-6-----3-----3-----3-------------|
     A||---7-7-7-7-7-7--6-6-6-6-6-6--5-----5-----5-----5--3-------|
     E||----------------------------------------------------------|

Toca dos veces ReM
     e||--2-----|--2----------------|-----|----|
     b||--3-----|--3----------------|-----|----|
     g||--2-----|--2----------------|-----|----|
     D||--------|-------------------|-----|----|
     A||--------|-------------------|-----|----|
     E||--------|-------------------|-----|----|
Y otra vez?
     e||---5--7---------------------------------------------------|
     b||---------8--6--5---------5--------------------------------|
     g||------------------7---7-----7--5--7-----------------------|
     D||--------------------------------------3--0----------------|
     A||------------------------------------------------------3/5-|
     E||--------------------------------------------1--3--1-------|

     e||---5-5-5-5-5-5--4-4-4-4-4-4-------------------------------|
     b||---5-5-5-5-5-5--4-4-4-4-4-4-------------------------------|
     g||---6-6-6-6-6-6--5-5-5-5-5-5-------------------------------|
     D||---7-7-7-7-7-7--6-6-6-6-6-6-----3-----3-----3-------------|
     A||---7-7-7-7-7-7--6-6-6-6-6-6--5-----5-----5-----5--3-------|
     E||----------------------------------------------------------|

Aki x fin cambia?

     e||----------------------------------------------------------|
     b||----------------------------------------------------------|
     g||------------------7------------------------7-----9--7-----|
     D||---9--7--9--7--9-----9------9--7--9--7--9-----9-----------|
     A||----------------------------------------------------------|
     E||----------------------------------------------------------|

     e||----------------------------------------------------------|
     b||----------------------------------------------------------|
     g||----------------------------------------------------------|
     D||---9--7--9--7---------------------------------------------|
     A||---------------7--5--7--5---4--2--4--2-----2--------------|
     E||----------------------------------------5-----------------|


     e||----------------------------------------------------------|
     b||----------------------------------------------------------|
     g||----------------------------------------------------------|
     D||--------------------3-----3-----4-------------------------|
     A||--4--2--4--2--4--5-----5-----6-----5----------------------|
     E||----------------------------------------------------------|
Aki dan una cantadita q no entiendo.. y mientras cantan hace esto?
     e||--5-5-5-------7-7-7---------------------------------------|
     b||--------------------6-6-6-5-5-5---------------------------|
     g||--------7-7-7-------------------7-7-7-5-5-5-5-5-5/7-------|
     D||-----------------------------------------------------3--0-|
     A||----------------------------------------------------------|
     E||----------------------------------------------------------|
    Aki ia no canta..
     e||---5-5-5-5-5-5--4-4-4-4-4-4-------------------------------|
     b||---5-5-5-5-5-5--4-4-4-4-4-4-------------------------------|
     g||---6-6-6-6-6-6--5-5-5-5-5-5-------------------------------|
     D||---7-7-7-7-7-7--6-6-6-6-6-6-----3-----3-----3-------------|
     A||---7-7-7-7-7-7--6-6-6-6-6-6--5-----5-----5-----5--3-------|
     E||----------------------------------------------------------|
Y después se repite lo mismo?
     e||----------------------------------------------------------|
     b||----------------------------------------------------------|
     g||------------------7------------------------7-----9--7-----|
     D||---9--7--9--7--9-----9------9--7--9--7--9-----9-----------|
     A||----------------------------------------------------------|
     E||----------------------------------------------------------|

     e||----------------------------------------------------------|
     b||----------------------------------------------------------|
     g||----------------------------------------------------------|
     D||---9--7--9--7---------------------------------------------|
     A||---------------7--5--7--5---4--2--4--2-----2--------------|
     E||----------------------------------------5-----------------|


     e||----------------------------------------------------------|
     b||----------------------------------------------------------|
     g||----------------------------------------------------------|
     D||--------------------3-----3-----3-------------------------|
     A||--4--2--4--2--4--5-----5-----5-----5--3-------------------|
     E||----------------------------------------------------------|
Aki la musika se pone más ?suave? y la guitar toca lo mismo?
     e||--5-5-5-------7-7-7---------------------------------------|
     b||--------------------6-6-6-5-5-5-------------------------3-|
     g||--------7-7-7-------------------7-7-7-5-5-5-5-5-5/7-----2-|
     D||-----------------------------------------------------3--0-|
     A||----------------------------------------------------------|
     E||----------------------------------------------------------|

     e||----------------------------------------------------------|
     b||----------------------------------------------------------|
     g||----------------------------------------------------------|
     D||-----3-----3-----3----------------------------------------|
     A||--5-----5-----5----5--3-----------------------------------|
     E||----------------------------------------------------------|

OMG de nuevo -.-¡?
     e||----------------------------------------------------------|
     b||----------------------------------------------------------|
     g||------------------7------------------------7-----9--7-----|
     D||---9--7--9--7--9-----9------9--7--9--7--9-----9-----------|
     A||----------------------------------------------------------|
     E||----------------------------------------------------------|
Cambia un poko el finalcito en esta parte?
     e||----------------------------------------------------------|
     b||----------------------------------------------------------|
     g||----------------------------------------------------------|
     D||--9--7--9--7----------------------------------------------|
     A||--------------7--5--7--5---4--2--4--2-----2--4--2--4--2-2-|
     E||---------------------------------------5------------------|
¬¬ la ultima?
     e||----------------------------------------------------------|
     b||----------------------------------------------------------|
     g||------------------7------------------------7-----9--7-----|
     D||---9--7--9--7--9-----9------9--7--9--7--9-----9-----------|
     A||----------------------------------------------------------|
     E||----------------------------------------------------------|

     e||----------------------------------------------------------|
     b||----------------------------------------------------------|
     g||----------------------------------------------------------|
     D||---9--7--9--7---------------------------------------------|
     A||---------------7--5--7--5---4--2--4--2-----2--------------|
     E||----------------------------------------5-----------------|


     e||----------------------------------------------------------|
     b||------------------------------------------------/15-------|
     g||------------------------------------------------/14-------|
     D||--------------------3-----3-----3-------------------------|
     A||--4--2--4--2--4--5-----5-----5-----5--3-------------------|
     E||----------------------------------------------------------|

WENO ESTAS SON LAS TABS DE LA PRIMERA GUITAR DE LA BANDA PERUANA LIBIDO
CUALKIER SUGERENCIA O COMENTARIO O DUDA O CRITICA O LO Q FAQ SEA AL CORREO:
assasinx@ ?  y weno nada mas.. alaos.
Добавлено: 24.09.2015
Вам также может быть интересно:
Другие материалы по этой песне:
  • Аккорды и текст

Страница создана 24.09.2015
http://primanota.ru/libido/hombre-loco-chords.htm
Привет, Гость.
Предлагаем пройти революционный курс по гитаре.
Подарок от PrimaNota.Ru, забирай!