PrimaNota.ru - самый крупный в мире бесплатный архив песенных текстов, аккордов, табулатур и нот


Libertines - Horror Show - аккорды и текст, таба, видео

Регистрация Запомнить меня
Войти через:  Facebook Google Twitter Vk Yandex Mail.ru

Libertines - Horror Show - аккорды и текст, таба, видео

Печатать
Просмотров: 338
Авторы: Peter Doherty, Carl Barât

Horror Show
Libertines
It's like this: The other tabs were wrong (well, version three's chorus was correct) and
tabbers
got the main riff all wrong. So I felt it was my duty to send in a correct version so all
the new Libertines-fans can play it right. Any questions or complaints, just mail:
felixkryger@hotmail.com

Have fun.

Band/Artist: The Libertines
Genre: Rock/Indierock
Album: Up The Bracket (2002)
Song: Horrorshow
Tuning: Standard

C:   3-3-5-5-5-3-|
D:   5-5-7-7-7-5-|
E:   7-7-9-9-9-7-|

F:   1-3-3-2-1-1-|
Am:  5-7-7-5-5-5-|
A:   5-7-7-6-5-5-|
G:   3-5-5-4-3-3-|
Bb:  2-2-4-4-3-2-|

Intro:
   C C C
E -3-3-3--x-x-x----------------------------------------------------------|
B -5-5-5--x-x-x----------------------------------------------------------|
G -5-5-5--x-x-x----------------X4----------------------------------------|
D -5-5-5--x-x-x----------------------------------------------------------|
A -3-3-3--x-x-x----------------------------------------------------------|
E -3-3-3--x-x-x----------------------------------------------------------|


Main Riff:
   C C C   E E E D
E -3-3-3---7-7-7-5----------------------------------------------------------|
B -5-5-5---9-9-9-7----------------------------------------------------------|
G -5-5-5---9-9-9-7-----------X4---------------------------------------------|
D -5-5-5---9-9-9-7----------------------------------------------------------|
A -3-3-3---7-7-7-5----------------------------------------------------------|
E -3-3-3---7-7-7-5----------------------------------------------------------|


Verse:

C      E  D
I've been following,
C                E  D
been following your mind's instructions
            F                                             (Main Riff X2)
Of how to slowly, sharply, SH-AR-PLY screw myself to death
                     F
Ah yes, there is a screw,
                       (Main Riff X2)
It's pointed at my head
C                  E  D
Then look a dream peddlar
C                       E  D
Stick it right through my bones
            F
Don't get on the wrong one now
F                                   (Main Riff X2)
And you, and you; what's your game?


Chorus:

C                                       E
Why don't you lay me down to waste me, laying me down?
Am            A
Pin me up or put me down
F
Uh uh uh uh oh
G           C   G
Now let it all go
C                    E
It's a horrorshow, come on round
 Am               A
Horrorshow, the horse is brown
F              G                 C  G
Uh uh uh uh oh left something in Moscow

Bridge:

Bb~C (X4)


SONG ORDER:
Intro
Main Riff
Verse
Chorus
Bridge
Verse
Chorus
Verse
Chorus

End on G.
Добавлено: 29.03.2012
Другие материалы по этой песне:
  • Аккорды и текст

Страница создана 29.02.2012
http://primanota.ru/libertines/horror-show-chords.htm
Привет, Гость.
Предлагаем пройти революционный курс по гитаре.
Подарок от PrimaNota.Ru, забирай!