PrimaNota.ru - самый крупный в мире бесплатный архив песенных текстов, аккордов, табулатур и нот


Lesson Guitar - Blues Licks - таба, видео

Регистрация Запомнить меня
Войти через:  Facebook Google Twitter Vk Yandex Mail.ru

Lesson Guitar - Blues Licks - таба, видео

Печатать
Просмотров: 109
Уроки эстрадного вокала в Санкт-Петербурге
-------------------------------------------------------------------------------
                             Blues Licks 
-------------------------------------------------------------------------------
Tabbed by: blackkk
E-mail: davidek95@hotmail.com

Tuning:

Lick no.1
e|-----5---------------------------------------------------------------------|
B|-----5---------------------------------------------------------------------|
G|-----5-h6--7-5---br5--7----------------------------------------------------|
D|----------------7----------------------------------------------------------|
A|---------------------------------------------------------------------------|
E|---------------------------------------------------------------------------|

Lick no.2
e|---------------------------------------------------------------------------|
B|---------------------------------------------------------------------------|
G|-----br7-5---8-7-5------5/7------------------------------------------------|
D|-------------------7-5--5/7------------------------------------------------|
A|---------------------------------------------------------------------------|
E|---------------------------------------------------------------------------|

************************************

| /   slide up
| \   slide down
| h   hammer-on
| p   pull-off
| ~   vibrato
| +   harmonic
| x   Mute note
| b   Bend
| pb  Pre-bend
| br  Bend release
| pbr Pre-bend release
| brb Bend release bend

************************************
Добавлено: 10.04.2016
Другие материалы по этой песне:
  • Аккорды и текст

Страница создана 10.04.2016
http://primanota.ru/lesson-guitar/blues-licks-chords.htm
Привет, Гость.
Предлагаем пройти революционный курс по гитаре.
Подарок от PrimaNota.Ru, забирай!