PrimaNota.ru - самый крупный в мире бесплатный архив песенных текстов, аккордов, табулатур и нот


Leo Moracchioli - Feel Good Inc - таба, видео

Регистрация Запомнить меня
Войти через:  Facebook Google Twitter Vk Yandex Mail.ru

Leo Moracchioli - Feel Good Inc - таба, видео

Печатать
Просмотров: 131
-------------------------------------------------------------------------------
                 Feel Good Inc. (Metal Cover) - Leo Moracchioli (Frog Leap Studios)
-------------------------------------------------------------------------------
Tabbed by: Theo Lacombe
E-mail: theolacombe@free.fr

Tuning: Drop D


Main Riff #1 : (Letter : A)
e|---------------------------------------------------------------------------|
B|---------------------------------------------------------------------------|
G|---------------------------------------------------------------------------|
D|--0---0-2-3---3-2----------------------------------------------------------|
A|--0---0-2-3---1-0----------------------------------------------------------|
D|--0---0-2-3----------------------------------------------------------------|

Between Riff #1 & #2 : (Letter : B)
e|---------------------------------------------------------------------------|
B|---------------------------------------------------------------------------|
G|--/9-7---------------------------------------------------------------------|
D|---------------------------------------------------------------------------|
A|--/7-5---------------------------------------------------------------------|
D|---------------------------------------------------------------------------|

Main Riff #2 : (Letter : C)
e|---------------------------------------------------------------------------|
B|---------------------------------------------------------------------------|
G|---------------------------------------------------------------------------|
D|--5--5/8-7-3-0-------------------------------------------------------------|
A|--5--5/8-7-3-0-------------------------------------------------------------|
D|--5--5/8-7-3-0-------------------------------------------------------------|

Verse : (Letter : V)
e|---------------------------------------------------------------------------|
B|---------------------------------------------------------------------------|
G|---------------------------------------------------------------------------|
D|--0---0-2-3---3-2----5--5/8-7-3-0------------------------------------------|
A|--0---0-2-3---1-0----5--5/8-7-3-0------------------------------------------|
D|--0---0-3-3----------5--5/8-7-3-0------------------------------------------|

Verse Variation : (Letter : W)
e|---------------------------------------------------------------------------|
B|---------------------------------------------------------------------------|
G|-------------------/9-7---------------/9-7---------------------------------|
D|--0---0-2-3--3-2----------5/8-7-3-0----------------------------------------|
A|--0---0-2-3--1-0---/7-5---5/8-7-3-0---/7-5---------------------------------|
D|--0---0-2-3---------------5/8-7-3-0----------------------------------------|

Chorus : (Letter : E)
e|---------------------------------------------------------------------------|
B|---------------------------------------------------------------------------|
G|---------------------------------------------------------------------------|
D|--0-0--0-0--5-5-5-5---5-5-5-5-5-5------------------------------------------|
A|--0-0--0-0--3-3-3-3---5-5-5-5-5-5------------------------------------------|
D|--0-0--0-0------------5-5-5-5-5-5------------------------------------------|

END Of Chorus : (END)
e|---------------------------------------------------------------------------|
B|--------------------------------------------PALM MUTE----------------------|
G|---------------------------------------------------------------------------|
D|--5-5-5-5-5-5-5-5----------------------------------------------------------|
A|--3-3-3-3-3-3-3-3----------------------------------------------------------|
D|---------------------------------------------------------------------------|

***********************************
Structure :

A-C (X2)
A-B-C-B (X2)
V (X2)
W (X2)
E (X4)
END (X1)


************************************

| /   slide up
| \   slide down
| h   hammer-on
| p   pull-off
| ~   vibrato
| +   harmonic
| x   Mute note
| b   Bend
| pb  Pre-bend
| br  Bend release
| pbr Pre-bend release
| brb Bend release bend

************************************
Добавлено: 02.05.2016
Другие материалы по этой песне:

Страница создана 02.05.2016
http://primanota.ru/leo-moracchioli/feel-good-inc-chords.htm
Привет, Гость.
Предлагаем пройти революционный курс по гитаре.
Подарок от PrimaNota.Ru, забирай!