PrimaNota.ru - самый крупный в мире бесплатный архив песенных текстов, аккордов, табулатур и нот


Leo Brouwer - Estudios Sencillos I - таба, видео

Регистрация Запомнить меня
Войти через:  Facebook Google Twitter Vk Yandex Mail.ru

Leo Brouwer - Estudios Sencillos I - таба, видео

Печатать
Просмотров: 100
This is the first study in Leo Brouwer's Estudios Sencillos
of which I believe there are 20.


Paul R. Estrada
estrada@cosmic.arc.nasa.gov


Study no 1. (Estudios Sencillos)
by Leo Brouwer

Timing is (4/4) 
Pace is MOVIDO.
Tab explanation below.


    1 & 2 & 3 & 4 &     1 & 2 & 3 & 4 &     1 & 2 & 3 & 4 &    
              
E|-------------------|-------------------|-------------------|
B|----0-0---0-----0--|----0-----0---0----|----0-0---0-----0--|
G|----0-0---0-----0--|----0-----0---0----|----0-0---0-----0--|
D|--------0---0-4----|--2----------------|--------0---0-4----|
A|-------------------|------2-0---3---2--|-------------------|
E|--0----------------|-------------------|--0----------------|
    mf        *             *         *       pp      *
 
    1 & 2 & 3 & 4 &     1 & 2 & 3 & 4 &     1 & 2 & 3 & 4 &    
              
E|-------------------|-------------------|-------------------|
B|----0-----0---0----|----0-0---0-----0--|----0-----0---0----|
G|----0-----0---0----|----0-0---0-----0--|----0-----0---0----|
D|--2----------------|-------------------|-------------------|
A|------2-0---4---2--|--------3----------|--3---------3---2--|
E|-------------------|--0---------1-1----|------1-1----------|
        *         *           f   *             *         *

    1 & 2 & 3 & 4 &     1 & 2 & 3 & 4 &     1 & 2 & 3 & 4 &    
              
E|-------------------|-------------------|-------------------|
B|----0-0---0-----0--|----0-----0---0----|----0-0-2-2--------|
G|----0-0---0-----0--|----0-----0---0----|----0-0-2-2--------|
D|-------------------|-------------------|-------------------|
A|--------3----------|--3---------3---2--|------------0-0----|
E|--0---------1-1----|------1-1----------|--0-------------3--|
          mp  *             *         * 

    1 & 2 & 3 & 4 &     1 & 2 & 3 & 4 &     1 & 2 & 3 & 4 &    
              
E|-------------------|-------------------|-------------------|
B|----0-0-2-2--------|----0-0-0----------|-------------------|
G|----0-0-2-2--------|----0-0-0---0-0-0--|----0-0---0-----0--|
D|-------------------|------------0-0-0--|----0-0---0-----0--|
A|------------0-0-5--|--5----------------|--------4----------|
E|--3----------------|-------------------|--0---------2-2----|
                                  p               f   *

    1 & 2 & 3 & 4 &     1 & 2 & 3 & 4 &     1 & 2 & 3 & 4 &    
              
E|-------------------|-------------------|-------------------|
B|-------------------|-------------------|--------0-0--------|
G|----0-----0---0----|----0-0-2-2--------|----2-2-2-2--------|
D|----0-----0---0----|----0-0-0-0--------|----0-0------------|
A|--5---------3------|------------0-0-3--|--3---------2-2----|
E|------3-3-------1--|--1----------------|----------------0--|
        *         *                                   ff 

    1 & 2 & 3 & 4 &     1 & 2 & 3 & 4 &        
              
E|-------------------|-------------------|
B|-------------------|-------------------|
G|----0-0-----0---0--|----0-0-----0---0--|
D|----0-0-----0---0--|----0-0-----0---0--|
A|--------4----------|--------4----------|
E|--0----------------|--0----------------|
          *       *           *       *

    1 & 2 & 3 & 4 &     1 & 2 & 3 & 4 &     1 & 2 & 3 & 4 &    
              
E|-------------------|-------------------|-------------------|
B|----0-0---0-----0--|----0-----0---0----|----0-0---0-----0--|
G|----0-0---0-----0--|----0-----0---0----|----0-0---0-----0--|
D|--------0---0-4----|--2----------------|--------0---0-4----|
A|-------------------|------2-0---3---2--|-------------------|
E|--0----------------|-------------------|--0----------------|
    f         *         *             *           pp  *

    1 & 2 & 3 & 4 &     1 & 2 & 3 & 4 &     1 & 2 & 3 & 4 &    
              
E|-------------------|-------------------|-------------------|
B|----0-----0---0----|----0-0---0-----0--|----0-----0---0----|
G|----0-----0---0----|----0-0---0-----0--|----0-----0---0----|
D|--2----------------|-------------------|-------------------|
A|------2-0---4---2--|--------3----------|--3---------3---2--|
E|-------------------|--0---------1-1----|------1-1----------|
        *         *           f   *             *         *

    1 & 2 & 3 & 4 &     1 & 2 & 3 & 4 &     1 & 2 & 3 & 4 &    
              
E|-------------------|-------------------|-------------------|
B|----0-0---0-----0--|----0-----0---0----|----0-0-0---0---0--|
G|----0-0---0-----0--|----0-----0---0----|----0-0-0---0---0--|
D|-------------------|-------------------|-------------------|
A|--------3----------|--3---------3---2--|-------------------|
E|--0---------1-1----|------1-1----------|--0----------------|
          p   *             *         *                   *pp


 *  = This is a 16th note.
 mf,f,ff,mp,p,pp = standard notation (forcefully or softly etc.)


     
Добавлено: 26.10.2013
Другие материалы по этой песне:
  • Аккорды и текст

Страница создана 26.09.2013
http://primanota.ru/leo-brouwer/estudios-sencillos-i-chords.htm
Привет, Гость.
Предлагаем пройти революционный курс по гитаре.
Подарок от PrimaNota.Ru, забирай!