PrimaNota.ru - самый крупный в мире бесплатный архив песенных текстов, аккордов, табулатур и нот


Leo Brouwer - Estudios Sencillos Ix - таба, видео

Регистрация Запомнить меня
Войти через:  Facebook Google Twitter Vk Yandex Mail.ru

Leo Brouwer - Estudios Sencillos Ix - таба, видео

Печатать
Просмотров: 78
This is the ninth study in Leo Brouwer's Estudios Sencillos
of which I believe there are 20.

This piece has a very "blues" feel to it.


Paul R. Estrada
estrada@cosmic.arc.nasa.gov


Study no 9. (Estudios Sencillos)
by Leo Brouwer

Timing is (4/4) and (2/4) 
Pace is MODERATO.
Tab explanation below.


    1 e & a 2 e & a 3 e & a 4 e & a     1 e & a 2 e & a 3 e & a 4 e & a       
              
E|-----------------------------------|-----------------------------------|
B|--------------------2^3---1^2-0^1--|--------------------2^3---1^2-0^1--|
G|------3^4-0^3-3^4---0-----0---0----|------3^4-0^3-3^4---0-----0---0----|
D|------0---0---0--------------------|------0---0---0--------------------|
A|------------------0-----0----------|------------------0-----0----------|
E|--3--------------------------------|--3--------------------------------|
 
    1 e & a 2 e & a 3 e & a 4 e & a     1 e & a 2 e & a        
              
E|-----------------------------------|-------------------|
B|-----------------------------------|-------------------|
G|------3^4-3^4-0--------------------|-------------------|
D|------0---0---1^2-----3^4-3^4-0----|------3^4-3^4-0----|
A|----------------------0---0---1^2--|------0---0---1^2--|
E|--0---------------0----------------|--0----------------|
 
    1 e & a 2 e & a 3 e & a 4 e & a     1 e & a 2 e & a 3 e & a 4 e & a       
              
E|------2^3-0------------------------|------2^3-0------------------------|
B|------------0---2^3-----0-2^3-0----|------------0---2^3-----0-2^3-0----|
G|--------------0-------0------------|--------------0-------0------------|
D|--------------------0--------------|--------------------0--------------|
A|-----------------------------------|-----------------------------------|
E|--0--------------------------------|--0--------------------------------|
 
    1 e & a 2 e & a 3 e & a 4 e & a     1 e & a 2 e & a 3 e & a 4 e & a       
              
E|-----------------------------------|------2^3-0------------------------|
B|----------0---------------0--------|------------0---2^3-----0-2^3-0----|
G|----0-----3^0-0-----0-----3^0-0----|--------------0-------0------------|
D|----4^0-------4^0---4^0-------4^0--|--------------------0--------------|
A|--------2---------------2----------|-----------------------------------|
E|--0---------------0----------------|--0--------------------------------|
 
    1 e & a 2 e & a 3 e & a 4 e & a     1 e & a 2 e & a 3 e & a 4 e & a       
              
E|--2^3-2^3-0------------------------|-----------------------------------|
B|------------0---2^3-----0-2^3-0----|----------0---------------0--------|
G|--------------0-------0------------|----0-----3^0-0-----0-----3^0-0----|
D|--------------------0--------------|----4^0-------4^0---4^0-------4^0--|
A|-----------------------------------|--------2---------------2----------|
E|--0--------------------------------|--0---------------0----------------|
 
    1 e & a 2 e & a 3 e & a 4 e & a     1 e & a 2 e & a 3 e & a 4 e & a       
              
E|-----------------------------------|------2^3-0------------------------|
B|----------0---------------0--------|------------0---2^3-----0-2^3-0----|
G|----0-----3^0-0-----0-----3^0-0----|--------------0-------0------------|
D|----4^0-------4^0---4^0-------4^0--|--1-----------------1--------------|
A|--------2---------------2----------|-----------------------------------|
E|--0---------------0----------------|-----------------------------------|
 
    1 e & a 2 e & a 3 e & a 4 e & a     1 e & a 2 e & a 3 e & a 4 e & a       
              
E|------2^3-0------------------------|----2-----2---------2-----2--------|
B|------------0---2^3-----0-2^3-0----|----4^0---4^0-------4^0---4^0------|
G|--------------0-------0------------|--------0-----0---------0-----0----|
D|--0-----------------0--------------|--------------4^0-------------4^0--|
A|-----------------------------------|--3---------------3----------------|
E|-----------------------------------|-----------------------------------|
 
    1 e & a 2 e & a 3 e & a 4 e & a     1 e & a 2 e & a 3 e & a 4 e & a       
              
E|----2-----2---------2-----2--------|-----------------------------------|
B|----4^0---4^0-------4^0---4^0------|------0---0------------------------|
G|--------0-----0---------0-----0----|------0---0------------------------|
D|--------------4^0-------------4^0--|------0---0------------------------|
A|--3---------------3----------------|-----------------------------------|
E|-----------------------------------|--3---------------------------0-2--|
                                                                    f

    1 e & a 2 e & a 3 e & a 4 e & a           
 
E|-----------------------------------|
B|-----------------------------------|
G|-----------------------------------|
D|-----------------------------------|
A|-----------------------------------|
E|--2-3-2-3--------------------------|


 *  = This is a 16th note.
 mf,f,ff,mp,p,pp = standard notation (forcefully or softly etc.)


     
Добавлено: 16.11.2013
Другие материалы по этой песне:
  • Аккорды и текст

Страница создана 16.11.2013
http://primanota.ru/leo-brouwer/estudios-sencillos-ix-chords.htm
Привет, Гость.
Предлагаем пройти революционный курс по гитаре.
Подарок от PrimaNota.Ru, забирай!