PrimaNota.ru - самый крупный в мире бесплатный архив песенных текстов, аккордов, табулатур и нот


Leningrad - Nikogo Ne Zhalko - бас-таба, видео

Регистрация Запомнить меня
Войти через:  Facebook Google Twitter Vk Yandex Mail.ru

Leningrad - Nikogo Ne Zhalko - бас-таба, видео

Печатать
Просмотров: 310
Srandard E,A,D,G tuning.

Main riff/Intro
G|-----------------------------|
D|------2-2-2---------2-2-2----|
A|-0--3-------3--0--3-------3--|
E|-----------------------------| 4x

Stanza
G|-----------------------------|
D|------2-2-2---------2-2-2----|
A|-0--3-------3--0--3-------3--|
E|-----------------------------|

G|-----------------------------|
D|--------------------2-2-2----|
A|-5--3-5-5-5-3--0--3-------3--|
E|-----------------------------|

G|-----------------------------|
D|------2-2-2---------2-2-2----|
A|-0--3-------3--0--3-------3--|
E|-----------------------------| x2

G|-----------------------------|
D|--------------------2-2-2----|
A|-5--3-5-5-5-3--0--3-------3--|
E|-----------------------------|

Chorus
G|-----------------------------|
D|-----------------------------|
A|-5-5--5-4-4--4-3-3--3-2-2--2-|
E|-----------------------------|

G|-----------------------------|
D|------2-2-2---------2-2-2----|
A|-0--3-------3--0--3-------3--|
E|-----------------------------|

G|-----------------------------|
D|-----------------------------|
A|-5-5--5-4-4--4-3-3--3-2-2--2-|
E|-----------------------------|

G|-----------------------------|
D|------2-2-2------------------|
A|-0--3-------3--0~------------|
E|-----------------------------|

G|-----------------------------|
D|------2-2-2---------2-2-2----|
A|-0--3-------3--0--3-------3--|
E|-----------------------------|

G|-----------------------------|
D|--------------------2-2-2----|
A|-5--3-5-5-5-3--0--3-------3--|
E|-----------------------------|

G|-----------------------------|
D|------2-2-2---------2-2-2----|
A|-0--3-------3--0--3-------3--|
E|-----------------------------|

G|-----------------------------|
D|--------------------2-2-2----|
A|-5--3-5-5-5-3--0--3-------3--|
E|-----------------------------|

G|-----------------------------|
D|-----------------------------|
A|-5-5--5-4-4--4-3-3--3-2-2--2-|
E|-----------------------------|

G|-----------------------------|
D|------2-2-2---------2-2-2----|
A|-0--3-------3--0--3-------3--|
E|-----------------------------|

G|-----------------------------|
D|-----------------------------|
A|-5-5--5-4-4--4-3-3--3-2-2--2-|
E|-----------------------------|

G|-----------------------------|
D|------2-2-2------------------|
A|-0--3-------3--0~------------|
E|-----------------------------|

*Repeat Stanza*

*Repeat Chorus*

*Repeat Intro*

Hurr...
Добавлено: 15.07.2012
Вам также может быть интересно:
Другие материалы по этой песне:
  • Аккорды и текст

Страница создана 15.07.2012
http://primanota.ru/leningrad/nikogo-ne-zhalko-chords.htm
Привет, Гость.
Предлагаем пройти революционный курс по гитаре.
Подарок от PrimaNota.Ru, забирай!