PrimaNota.ru - самый крупный в мире бесплатный архив песенных текстов, аккордов, табулатур и нот


Legend Of Zelda - Queen Rutelas Theme - таба, видео

Регистрация Запомнить меня
Войти через:  Facebook Google Twitter Vk Yandex Mail.ru

Legend Of Zelda - Queen Rutelas Theme - таба, видео

Печатать
Просмотров: 101
E|----------------|
B|----------------|
G|----------------|
D|--------2--2--4-|   x2
A|--0--3----------|
E|----------------|

E|-------------------|
B|-------------------|
G|-------------------|
D|-----4--5--5--4----|   x2
A|--3--------------2-|
E|-------------------|

E|----------------|
B|----------------|
G|----------------|
D|--------2--2--4-|   x2
A|--0--3----------|
E|----------------|

E|-------------------------|
B|-------------------------|
G|-------------------------|
D|--2--------0--------0----|
A|-----0--3-----3--2-----7-|
E|-------------------------|


Listen to song for timing
Добавлено: 09.08.2015
Другие материалы по этой песне:
  • Аккорды и текст

Страница создана 09.08.2015
http://primanota.ru/legend-of-zelda/queen-rutelas-theme-chords.htm
Привет, Гость.
Предлагаем пройти революционный курс по гитаре.
Подарок от PrimaNota.Ru, забирай!