PrimaNota.ru - самый крупный в мире бесплатный архив песенных текстов, аккордов, табулатур и нот


Led Zeppelin - Tangerine Live - таба, видео

Регистрация Запомнить меня
Войти через:  Facebook Google Twitter Vk Yandex Mail.ru

Led Zeppelin - Tangerine Live - таба, видео

Печатать
Просмотров: 107
This is live from Earls court 1975
--Intro/Rhythm 1
e--0-0-0-0---3--2-2-----------------0-0-0-0---3--2-2--0-0--------------------|
B--1-3-1-0---0--3-3-------3---------1-3-1-0---0--3-3--1-1--------------------|
G--2-2-2-2---0--2-2-----2-----2-----2-2-2-2---0--2-2--0-0-------0-----0------|
D--2-2-2-2---0--0-0--(0)--------0---2-2-2-2---0--0-0--2-2---2--2-----0-------|
A--0-0-0-0---2----------------------0-0-0-0---2-------3-3--3--3---3-2---2-0--|
E------------3--------------------------------3------------------------------|

                                                              Play 3times

e-0-0-0---3-3-3---2-2-2---2-2-3-2--0-2-----|---0-0-0--2-2-2-|---3--3---3-3-3-|
B-1-1-1---0-0-0---3-3-3---3-3-3-3--3-3----0|---1-1-1--3-3-3-|0--0--0---0-0-0-|
G-2-2-2---0-0-0---2-2-2---2-2-2-2--2-2-----|---0-0-0--2-2-2-|---0--0---0-0-0-|
D-2-2-2---0-0-0---0-0-0---0-0-0-0--0-0-----|---2-2-2--0-0-0-|---0--0---0-0-0-|
A-0-0-0---2-2-2---------------------------0|---3-3-3--------|0--2--2---2-2-2-|
E---------3-3-3----------------------------|----------------|---3--3---3-3-3-|

e--2-2--0--0--0---0-0-0---2-2--|-3--3--3-3-3---3--3----2--3--2--0---0-2----|
B--3-3--1--1--1---1-1-1---3-3-0|-0--0--0-0-0---0--0---3--3--3--3-3-2-------|
G--2-2--0--0--0---0-0-0---2-2--|-0--0--0-0-0---0--0--2--2--2--2---2--------|
D--0-0--2--2--2---2-2-2---0-0--|-0--0--0-0-0---0--0------------------------|
A-------3--3--3---3-3-3-------0|-2--2--2-2-2---2--2------------------------|
E------------------------------|-3--3--3-3-3---3--3------------------------|

start over until you get to the first repeat sign and then its the solo w/slide

e---------------------------------------------------------------------------|
B--/14----10-10-10/13----15-15/17--17\15---13-12-13-12-13/15---15\12--------|
G---------------------------------------------------------------------------|
D---------------------------------------------------------------------------|
A---------------------------------------------------------------------------|
E---------------------------------------------------------------------------|

e-----------------------------------------17---15---/18-/18-/18-17---15/18-17-|
B--12-12-13-15---12\10/12---12-12-13-15---------------------------------------|
G-----------------------------------------------------------------------------|
D-----------------------------------------------------------------------------|
A-----------------------------------------------------------------------------|
E-----------------------------------------------------------------------------|

Play the chorus 1 more time and for the outro page just pretty much improvises arpeggios 
the D and C chords so have fun making your own outro!
Добавлено: 30.06.2013
Другие материалы по этой песне:
  • Аккорды и текст

Страница создана 30.06.2013
http://primanota.ru/led-zeppelin/tangerine-live-chords.htm
Привет, Гость.
Предлагаем пройти революционный курс по гитаре.
Подарок от PrimaNota.Ru, забирай!