PrimaNota.ru - самый крупный в мире бесплатный архив песенных текстов, аккордов, табулатур и нот


Led Zeppelin - Going To California Open G - таба, видео

Регистрация Запомнить меня
Войти через:  Facebook Google Twitter Vk Yandex Mail.ru

Led Zeppelin - Going To California Open G - таба, видео

Печатать
Просмотров: 466
Уроки эстрадного вокала в Санкт-Петербурге
Artist: Led Zeppelin
Song : Going To California (Led Zeppelin IV 1971)
Tuning: Open G (DGDGBD)


An arrangement for single guitar of the two guitars on the original.


Intro                              Spend my days
                              7x                          
D||------0-----------0--------||---5-------4-----------0--|
B||------------3--------------||-----------------5--0-----|
G||*-------------------------*||*-------0-----------0-----|
D||*--------0-----------0----*||*-------------------------|
G||---------------------------||---0----------0-----------|
D||---0-----------0-----------||--------------------------|


                                                                              
|-----------0-----------0--|--0-------0-----------0--|-----------0------------|
|-----5--0--------5--0-----|-------5--------5--0-----|-----5--0--------5--0---|
|--------0-----------0-----|-------0-----------0-----|--------0-----------0---|
|--------------------------|-------------------------|------------------------|
|--0-----------0-----------|--0----------0-----------|--0-----------0---------|
|--------------------------|-------------------------|------------------------|


                                                     
|--2/4---4-----------4--7--|--------4--7--------4--7--|
|-----------5-----5--------|-----5-----------5--------|
|--------------------------|--------------------------|
|--------0-----------0-----|--------0-----------0-----|
|--------------------------|--------------------------|
|--0-----------0-----------|--0-----------0-----------|


                                                      2x
|--2/4---4-----------4--7--|--------4--7--------4-----||
|-----------5-----5--------|-----5-----------5--------||
|--------------------------|-------------------------*||
|--------0-----------0-----|--------0-----------0----*||
|--------------------------|--------------------------||
|--0-----------0-----------|--0-----------0-----------||


                                                                             
|--3h2------3-----2--------|--3h2------2--------------|--2----4--4------------|
|--------3--------------3--|--------3--------3-----3--|-----------------------|
|--------------------------|--------------------------|-----------------------|
|--------0-----------0-----|--------0-----------0-----|-------0----------0----|
|--------------------------|--------------------------|-----------------------|
|--0-----------0-----------|--0-----------0-----------|--0----------0---------|


                                                    
|-----------5--------0----|--3h2------3-----2--------|
|-----------------7-------|--------3--------------3--|
|--6h7---6----------------|--------------------------|
|--------0-----------0----|--------0-----------0-----|
|-------------------------|--------------------------|
|--0-----------0----------|--0-----------0-----------|


                                                                            
|--3h2------2--------------|--2----4--4------------|-----------0-------------|
|--------3--------3-----3--|-----------------------|--------0-----------0----|
|--------------------------|-----------------------|-----2-----------2-------|
|--------0-----------0-----|-------0----------0----|--------0-----------0----|
|--------------------------|-----------------------|-------------------------|
|--0-----------0-----------|--0----------0---------|--0-----------0----------|


                                                    
|-----0-----------0--------|-----0-----------0-------|
|-----------3-----------3--|-----------3-------------|
|--------------------------|-------------------------|
|--------0-----------0-----|--------0-----------0----|
|--------------------------|-------------------------|
|--0-----------0-----------|--0-----------0----------|



     Took my chances
                                                      
||---5-------4-----------0--|-----------0-----------0--|
||-----------------5--0-----|-----5--0--------5--0-----|
||*-------0-----------0-----|--------0-----------0-----|
||*-------------------------|--------------------------|
||---0----------0-----------|--0-----------0-----------|
||--------------------------|--------------------------|


                                                                              
|--0-------0-----------0--|-----------0------------|--2/4---4-----------4--7--|
|-------5--------5--0-----|-----5--0--------5--0---|-----------5-----5--------|
|-------0-----------0-----|--------0-----------0---|--------------------------|
|-------------------------|------------------------|--------0-----------0-----|
|--0----------0-----------|--0-----------0---------|--------------------------|
|-------------------------|------------------------|--0-----------0-----------|


                                                     
|--------4--7--------4--7--|--2/4---4-----------4--7--|
|-----5-----------5--------|-----------5-----5--------|
|--------------------------|--------------------------|
|--------0-----------0-----|--------0-----------0-----|
|--------------------------|--------------------------|
|--0-----------0-----------|--0-----------0-----------|


                            Seems like the wrath 
                           2x  
|--------4--7--------4-----||---7--------5-----------7--|
|-----5-----------5--------||------6-----------6--------|
|-------------------------*||*--------7-----------7-----|
|--------0-----------0----*||*--------0-----------0-----|
|--------------------------||---------------------------|
|--0-----------0-----------||---0-----------0-----------|


                                                     
|-----------5--------------|--7--------5-----------7--|
|-----6-----------6-----6--|-----6-----------6--------|
|--------7-----------7-----|--------7-----------7-----|
|--------0-----------0-----|--------0-----------0-----|
|--------------------------|--------------------------|
|--0-----------0-----------|--0-----------0-----------|


                              1.                       
                                                     
|-----------5--------------|-----------0--------------|
|-----6-----------6-----6--|-----0--2--------2-----2--|
|--------7-----------7-----|--2-----------------------|
|--------0-----------0-----|--------2-----------2-----|
|--------------------------|--2-----------2-----------|
|--0-----------0-----------|--------------------------|


                                                     
|-----------0--------------|--0--------0--------------|
|--2h0---2--------0--2-----|-----0--2--------0--2-----|
|-----------------------2--|-----------------------2--|
|--------2-----------2-----|--------2-----------2-----|
|--2-----------2-----------|--2-----------2-----------|
|--------------------------|--------------------------|


                                2.                     
                                                       
|-----------0---------------||-----------0--------------|
|--2h0---2--------0--2------||-----0--2--------2--------|
|-----------------------2--*||-----------------------2--|
|--------2-----------2-----*||--------2-----------2-----|
|--2-----------2------------||--2-----------2-----------|
|---------------------------||--------------------------|


                                                    
|--0--------0--------------|--0-------0--------------|
|-----2-----------2--------|-------2--------2--------|
|-----------2-----------2--|----------------------2--|
|--------2-----------2-----|-------2-----------2-----|
|--2-----------2-----------|--2----------2-----------|
|--------------------------|-------------------------|


                                                     
|--0--------0--------------|--------7--------------7--|
|-----2-----------2--------|-----7--------------7-----|
|-----------2-----------2--|--7--------7-----9--------|
|--------2-----------2-----|--------7-----------7-----|
|--2-----------2-----------|--------------7-----------|
|--------------------------|--7-----------------------|


                                                                              
|-----------7-----------7--|----------------------7--|--7--------7------------|
|--------7-----------7-----|-------7-----------7-----|--------7-----------7---|
|-----9-----------9--------|--7-------7-----9--------|-----9-----------9------|
|--------7-----------7-----|-------------------7-----|--------7-----------7---|
|--7-----------7-----------|-------7-----7-----------|--7-----------7---------|
|--------------------------|--7----------------------|------------------------|



     To find the queen
                                                      
||---5-------4-----------0--|-----------0-----------0--|
||-----------------5--0-----|-----5--0--------5--0-----|
||*-------0-----------0-----|--------0-----------0-----|
||*-------------------------|--------------------------|
||---0----------0-----------|--0-----------0-----------|
||--------------------------|--------------------------|


                                                                              
|--0-------0-----------0--|-----------0------------|--2/4---4-----------4--7--|
|-------5--------5--0-----|-----5--0--------5--0---|-----------5-----5--------|
|-------0-----------0-----|--------0-----------0---|--------------------------|
|-------------------------|------------------------|--------0-----------0-----|
|--0----------0-----------|--0-----------0---------|--------------------------|
|-------------------------|------------------------|--0-----------0-----------|


                                                     
|--------4--7--------4--7--|--2/4---4-----------4--7--|
|-----5-----------5--------|-----------5-----5--------|
|--------------------------|--------------------------|
|--------0-----------0-----|--------0-----------0-----|
|--------------------------|--------------------------|
|--0-----------0-----------|--0-----------0-----------|


                           2x                          
|--------4--7--------4-----||--3h2------3-----2--------|
|-----5-----------5--------||--------3--------------3--|
|-------------------------*||--------------------------|
|--------0-----------0----*||--------0-----------0-----|
|--------------------------||--------------------------|
|--0-----------0-----------||--0-----------0-----------|


                                                                            
|--3h2------2--------------|--2----4--4------------|-----------5--------0----|
|--------3--------3-----3--|-----------------------|-----------------7-------|
|--------------------------|-----------------------|--6h7---6----------------|
|--------0-----------0-----|-------0----------0----|--------0-----------0----|
|--------------------------|-----------------------|-------------------------|
|--0-----------0-----------|--0----------0---------|--0-----------0----------|


                                                       
||---3h2------3-----3--------|--0-----0--2-----0-----0--|
||---------3--------------3--|--------------------------|
||*--------------------------|-----0--------------0-----|
||*--------0-----------0-----|--------0-----------------|
||---------------------------|--4-----------4-----------|
||---0-----------0-----------|--------------------------|


                                                     
|--2h0------0-----0-------|-----------5--------0-----||
|-------------------------|-----------------7--------||
|--------2-----------2----|--6h7---6----------------*||
|--------0-----------0----|--------0-----------0----*||
|-------------------------|--------------------------||
|--0-----------0----------|--0-----------0-----------||


                              19x
||------------2-----------0---||
||------3-----------3---------||
||*--------------------------*||
||*--------0-----------0-----*||
||----------------------------||
||---0-----------0------------||

 


     
Добавлено: 07.07.2013
Другие материалы по этой песне:
  • Аккорды и текст

Страница создана 07.07.2013
http://primanota.ru/led-zeppelin/going-to-california-open-g-chords.htm
Привет, Гость.
Предлагаем пройти революционный курс по гитаре.
Подарок от PrimaNota.Ru, забирай!