PrimaNota.ru - самый крупный в мире бесплатный архив песенных текстов, аккордов, табулатур и нот


Le Tigre - Whats Your Take On Cassavettes - таба, видео

Регистрация Запомнить меня
Войти через:  Facebook Google Twitter Vk Yandex Mail.ru

Le Tigre - Whats Your Take On Cassavettes - таба, видео

Печатать
Просмотров: 100
Le Tigre - What's Your Take On Cassavettes
Tuned by garbagewind
Intro

We've talked about it in letters
E|----|
B|----|
G|----|
D|----|x5
A|--9-|
E|-7--|
And we've talked about it on the phone
E|----|
B|----|
G|----|
D|----|x5
A|--7-|
E|-5--| 
But how you really feel about it
E|----|
B|----|
G|----|
D|----|x5
A|--9-|
E|-7--|
I don't really know
E|----|
B|----|
G|----|
D|----|x5
A|--7-|
E|-5--| 

Chorus x4
   What's Your Take On Cassavettes
E|---------|-----------|
B|---------|-----------|
G|---------|-7--7-7--7-|
D|-9-9-9-9-|-7--7-7--7-|
A|-9-9-9-9-|-5--5-5--5-|
E|-7-7-7-7-|-----------|

Bridge x2
Misogynist?
E|----------|
B|----------|
G|----------|
D|----------|
A|--6-6-7-7-|
E|----------|
Genius?
E|----------|
B|----------|
G|----------|
D|----------|
A|--6-6-7-7-|
E|----------|
Misogynist?
E|----------|
B|----------|
G|----------|
D|----------|
A|--6-6-7-7-|
E|----------|
Genius?
E|----------|
B|----------|
G|----------|
D|----------|
A|--6-6-7-7-|
E|----------|

Chorus x4
   What's Your Take On Cassavettes
E|---------|-----------|
B|---------|-----------|
G|---------|-7--7-7--7-|
D|-9-9-9-9-|-7--7-7--7-|
A|-9-9-9-9-|-5--5-5--5-|
E|-7-7-7-7-|-----------|

Bridge x2
Alcoholic?
E|----------|
B|----------|
G|----------|
D|----------|
A|--6-6-7-7-|
E|----------|
Messiah?
E|----------|
B|----------|
G|----------|
D|----------|
A|--6-6-7-7-|
E|----------|
Alcoholic?
E|----------|
B|----------|
G|----------|
D|----------|
A|--6-6-7-7-|
E|----------|
Messiah?
E|----------|
B|----------|
G|----------|
D|----------|
A|--6-6-7-7-|
E|----------|

Chorus x4
   What's Your Take On Cassavettes
E|---------|-----------|
B|---------|-----------|
G|---------|-7--7-7--7-|
D|-9-9-9-9-|-7--7-7--7-|
A|-9-9-9-9-|-5--5-5--5-|
E|-7-7-7-7-|-----------|

Bridge
Genius?
E|----------|
B|----------|
G|----------|
D|----------|
A|--6-6-7-7-|
E|----------|
Misogynist?
E|----------|
B|----------|
G|----------|
D|----------|
A|--6-6-7-7-|
E|----------|
Alcoholic?
E|----------|
B|----------|
G|----------|
D|----------|
A|--6-6-7-7-|
E|----------|
Hey where's Gena?
E|----------|
B|----------|
G|----------|
D|----------|
A|--6-6-7-7-|
E|----------|
Genius?
E|----------|
B|----------|
G|----------|
D|----------|
A|--6-6-7-7-|
E|----------|
Misogynist?
E|----------|
B|----------|
G|----------|
D|----------|
A|--6-6-7-7-|
E|----------|
Messiah?
E|----------|
B|----------|
G|----------|
D|----------|
A|--6-6-7-7-|
E|----------|
Alcoholic?
E|----------|
B|----------|
G|----------|
D|----------|
A|--6-6-7-7-|
E|----------|

Chorus x4
   What's Your Take On Cassavettes
E|---------|-----------|
B|---------|-----------|
G|---------|-7--7-7--7-|
D|-9-9-9-9-|-7--7-7--7-|
A|-9-9-9-9-|-5--5-5--5-|
E|-7-7-7-7-|-----------|

Chorus x7
   What's Yr Take on
E|---------|-----------|
B|---------|-----------|
G|---------|-7--7-7--7-|
D|-9-9-9-9-|-7--7-7--7-|
A|-9-9-9-9-|-5--5-5--5-|
E|-7-7-7-7-|-----------|
Chorus
   What's Yr Take on Cassavetes?
E|---------|-----------|
B|---------|-----------|
G|---------|-7--7-7--7-|
D|-9-9-9-9-|-7--7-7--7-|
A|-9-9-9-9-|-5--5-5--5-|
E|-7-7-7-7-|-----------|
Enjoy everybody!
Добавлено: 07.06.2012
Другие материалы по этой песне:
  • Аккорды и текст

Страница создана 07.06.2012
http://primanota.ru/le-tigre/whats-your-take-on-cassavettes-chords.htm
Привет, Гость.
Предлагаем пройти революционный курс по гитаре.
Подарок от PrimaNota.Ru, забирай!