PrimaNota.ru - самый крупный в мире бесплатный архив песенных текстов, аккордов, табулатур и нот


Лазурный берег - Хочу замуж - аккорды и текст, видео

Регистрация Запомнить меня
Войти через:  Facebook Google Twitter Vk Yandex Mail.ru

Лазурный берег - Хочу замуж - аккорды и текст, видео

Печатать
Просмотров: 254
Хочу замуж
Лазурный берег
Вступление:
E--------------------------------------------------------------------------------------------------
H-------------------------------------------------------------------------------------------------
G---------------------------------------------------------------------------------3-3sl5-3------
D-------------3-5-6----------------3-5-6---------------3-5-6----------3---6-----------6-5-
A-3-2-3-4-3-----------3-2-3-4-3----------4-3-4-6-4----------6-5-6--6------------------
E-------------------------------------------------------------------------------------------------
                    Fm                  A#m               D#                 G#      C7
E--------------------------------------------------------------------------------------------------
H-------------------------------------------------------------------------------------------------
G---------------------------------------------------------------------------------3-3sl5-3------
D-------------3-5-6----------------3-5-6---------------3-5-6----------3---6-----------6-5-
A-3-2-3-4-3-----------3-2-3-4-3----------4-3-4-6-4----------6-5-6--6------------------
E-------------------------------------------------------------------------------------------------

Fm
Я помню - мама говорила,
        A#m
Что всё должно быть красиво.
  D#
Белое платье, букеты роз,
    G#             C7
А по спине мороз.
Fm
 Но как-то не получалось,
   A#m
Я первая всегда сдавалась,
 D#
Но почему - сама не знаю
G#                     C7
 И теперь себя ругаю.

               Fm
Хочу я замуж, замуж хочу,
              A#m
Да ты не бойся - я всё оплачу.
                 D#
Надеть бы белое платье, пойти б танцевать
              Gm                A#m         C7
А ты, противный, всё зовёшь в кровать.

Хочу я замуж, замуж хочу,
Да ты не бойся - я всё оплачу.
Надеть бы белое платье, пойти б танцевать
А ты, противный, всё зовёшь в кровать.

Рано мне пока жениться,
Вдоволь надо порезвиться,
Я обещаю - веришь ты,
Что сбудутся мечты.
Мой милый, не притворяйся,
Если что задумал - сразу сдавайся,
Это я с виду такая простая,
Всё равно женишься - я себя знаю.

Хочу я замуж, замуж хочу,
Да ты не бойся - я всё оплачу.
Надеть бы белое платье, пойти б танцевать
А ты, противный, всё зовёшь в кровать.

Хочу я замуж, замуж хочу,
Да ты не бойся - я всё оплачу.
Надеть бы белое платье, пойти б танцевать
А ты, противный, всё зовёшь в кровать.

Fm
 Не ходите, девки, замуж:
A#m
 Ничего хорошего.
D#
 Платье белое напялишь,
G#                C7
 А в итоге - брошена.

Проигрыш:
                    Fm                  A#m               D#                 G#      C7
E--------------------------------------------------------------------------------------------------
H-------------------------------------------------------------------------------------------------
G---------------------------------------------------------------------------------3-3sl5-3------
D-------------3-5-6----------------3-5-6---------------3-5-6----------3---6-----------6-5-
A-3-2-3-4-3-----------3-2-3-4-3----------4-3-4-6-4----------6-5-6--6------------------
E-------------------------------------------------------------------------------------------------

Хочу я замуж, замуж хочу,
Да ты не бойся - я всё оплачу.
Надеть бы белое платье, пойти б танцевать
А ты, противный, всё зовёшь в кровать.

Хочу я замуж, замуж хочу,
Да ты не бойся - я всё оплачу.
Надеть бы белое платье, пойти б танцевать
А ты, противный, всё зовёшь в кровать.

Хочу я замуж, замуж хочу,
Да ты не бойся - я всё оплачу.
Надеть бы белое платье, пойти б танцевать
А ты, противный, всё зовёшь в кровать.

Хочу я замуж, замуж хочу,
Да ты не бойся - я всё оплачу.
Надеть бы белое платье, пойти б танцевать
А ты, противный, всё зовёшь в кровать.


Проигрыш:
                    Fm        
E------------------------
H-----------------------
G-----------------------
D-------------------3--
A-3-2-3-4-3-2-3-----
E-----------------------
Добавлено: 14.08.2015
Другие материалы по этой песне:
  • Аккорды и текст

Страница создана 14.08.2015
http://primanota.ru/lazurnyi-bereg/xochu-zamuzh-chords.htm
Привет, Гость.
Предлагаем пройти революционный курс по гитаре.
Подарок от PrimaNota.Ru, забирай!